:: Guitar & Bass Tabs Make Home Page
A B C D E F G H I J K L M N O P Q R S T U V W X Y Z #

  for    

On TABSPACE
Info About This Tab
Artist: Vanilla Ninja
Tab Type: Guitar
Difficulty: intermediate
Rate This Tab!
These are tabs for the song "When the Indians cry" by Vanilla Ninja, an Estonian band. 
tabs does not give a good presentation on timing.

Intro:

|-----------------------------|-----------------------------|
|----3--------2-------3-----3-|------2-----3---------3-2----|
|----2--------2-------2-----2-|------2-----2-------2---2----|
|--4---4----2---2---0-----0---|0---2-----4---4---2-----2----|
|2--------0-------------------|--------2-------0------------|
|-----------------3-----2-----|--2--------------------------|

Verse 1:

Babe tell me where
Will you sleep tonight

Bm	     A           G            F#

|----------------------------------------------------------|
|--------3-----------2-----------3-----------3-------------|
|----2-----------2-----------2-----------2-----------------|
|--4---4---4---2---2---2---0---0---0---0---0---0-----------|
|2-----------0---------------------------------------------|
|------------------------3-----------2---------------------|

For there's such a pain, in my heart

Bm	     A           G            F#

|------------------------------------2-0-------------------|
|--------3-----------2-----------3-------3-----------------|
|----2-----------2-----------2-----------------------------|
|--4---4---4---2---2---2---0---0---0-----------------------|
|2-----------0---------------------------------------------|
|------------------------3---------------------------------|

And I've got a flame, that's dying inside

Bm	     A           G            F#

|----------------------------------------------------------|
|--------3-----------2-----------3-----------3-------------|
|----2-----------2-----------2-----------2-----------------|
|--4---4---4---2---2---2---0---0---0---0---0---0-----------|
|2-----------0---------------------------------------------|
|------------------------3-----------2---------------------|

And I feel that we'll soon have to part

Bm	     A           G            G

|-------------------------------------2--------------------|
|--------3-----------2-----------3----3--------------------|
|----2-----------2-----------2-----------------------------|
|--4---4---4---2---2---2---0---0---0-----------------------|
|2-----------0---------------------------------------------|
|------------------------3---------------------------------|


Chorus:

When the indians cry
And the eagles die
Cause the winds of change blow again

Bm	 A       G       F#      Bm      D       A

|--------------------------------------2---------------------|
|------3-------2-------3-------3-----3---------3-----3----3p2|
|----2-------2-------2-------2-----4---------2---------2-----|
|--4-------2-------0-------0---------------4-------2---------|
|2-------0-----------------------2-------2-------0-----------|
|----------------3-------2-----------------------------------|


Then I'll know that you
Turned the world into blue
And my tears will fall like the rain

Bm	 A       G       F#      Bm      D       A

|--------------------------------------2---------------------|
|------3-------2-------3-------3-----3---------3-----3----3p2|
|----2-------2-------2-------2-----4---------2---------2-----|
|--4-------2-------0-------0---------------4-------2---------|
|2-------0-----------------------2-------2-------0-----------|
|----------------3-------2-----------------------------------|

Verse 2:

Here you can play the same as verse one tabs/chords


Solo after second chorus:

|-------------------------------------------------------------|
|--------------7-10-8-7-8----8-7-7--7b8r7b8r7b8r7-------------|
|----------8-9------------------------------------------------|
|--------------------------9----------------------9-----------|
|-------6-----------------------------------------------------|
|9b10-7----------------------------------------------11b12-11-|

|---12-14-17-15-14-15----15-14-16-19--------------------------|
|16-------------------12-------------12p10--------------------|
|------------------------------------------12/11-9------------|
|-------------------------------------------------------------|
|-------------------------------------------------------------|
|-------------------------------------------------------------|

The very last part of the solo is wrong. I did not manage to hear the right tones, so 
a little improvisation.

The tab is not complete. I may upload a v2 in the future containing the rest of the song.

This was my first tab ever, so suggestions/comments/feedback/critics are very welcome at kdeliass@start.no

Enjoy

Daniel


Share "When The Indians Cry" by Vanilla Ninja


TOP 10 TABS

FRESH NEW TABS

ALL ARTISTS
artist wiki

TabSpace.com / contact us / privacy policy / tabspace toolbar
Copyright 2004 - 2022 TabSpace.com - All Rights Reserved.
song: when the indians cry guitar tabs by vanilla ninja