:: Guitar & Bass Tabs Make Home Page
A B C D E F G H I J K L M N O P Q R S T U V W X Y Z #

  for    

On TABSPACE
Info About This Tab
Artist: Zero Boys
Tab Type: Bass
Rate This Tab!
Intro
G-------------------------|---|
D-------------------------|---|
A-------------------------|---|
E-7-7-7-7-7-7-7-7-7-7-7-7-|-8-|

Verse
G-------------------------|-------------------------|
D-------------------------|-------------------------|
A-------------------------|-------------------------|
E-7-7-7-7--8--7-7-7-7--10-|-7-7-7-7--8--7-7-7-7--10-|

G-------------------------|-------------------------|
D-------------------------|-------------------------|
A-------------------------|-------------------------|
E-7-7-7-7--8--7-7-7-7--10-|-7-7-7-7--8--7-7-7-7--10-|

G---------------------|
D---------------------|
A-7-7-7-7-10-10-10-10-|
E---------------------|

G-------------------------|-------------------------|
D-------------------------|-------------------------|
A-------------------------|-------------------------|
E-7-7-7-7--8--7-7-7-7--10-|-7-7-7-7--8--7-7-7-7--10-|

G-------------------------|---------------------|
D-------------------------|---------------------|
A-------------------------|-7-7-7-7-10-10-10-10-|
E-7-7-7-7--8--7-7-7-7--10-|---------------------|

G-------------------------|
D-------------------------|
A-------------------------|
E-7-7-7-7--8--7-7-7-7--10-|

Chorus
G----------------|----------------|----------------|-----------------------|
D----------------|----------------|----------------|-----------------------|
A-----55---------|-----55---------|-----55---------|----55-----------------|
E-3-3----7-7-7-7-|-3-3----7-7-7-7-|-3-3----7-7-7-7-|3-3----5-5-5-5-5-5-5-5-|

G-----------------|
D-----------------|
A-----------------|
E-5-5-5-5-5-5-5-5-|

Verse2
G-------------------------|-------------------------|
D-------------------------|-------------------------|
A-------------------------|-------------------------|
E-7-7-7-7--8--7-7-7-7--10-|-7-7-7-7--8--7-7-7-7--10-|

G-------------------------|-------------------------|
D-------------------------|-------------------------|
A-------------------------|-------------------------|
E-7-7-7-7--8--7-7-7-7--10-|-7-7-7-7--8--7-7-7-7--10-|

G---------------------|
D---------------------|
A-7-7-7-7-10-10-10-10-|
E---------------------|

G-------------------------|-------------------------|
D-------------------------|-------------------------|
A-------------------------|-------------------------|
E-7-7-7-7--8--7-7-7-7--10-|-7-7-7-7--8--7-7-7-7--10-|

G-------------------------|---------------------|
D-------------------------|---------------------|
A-------------------------|-7-7-7-7-10-10-10-10-|
E-7-7-7-7--8--7-7-7-7--10-|---------------------|

G-------------------------|
D-------------------------|
A-------------------------|
E-7-7-7-7--8--7-7-7-7--10-|

Chorus
G----------------|----------------|----------------|-----------------------|
D----------------|----------------|----------------|-----------------------|
A-----55---------|-----55---------|-----55---------|----55-----------------|
E-3-3----7-7-7-7-|-3-3----7-7-7-7-|-3-3----7-7-7-7-|3-3----5-5-5-5-5-5-5-5-|

G-----------------|
D------------7777-|
A-----------------|
E-5-5-5-5-5-5-----|

Behind Solo
G-------------------------|-------------------------|
D-------------------------|-------------------------|
A-------------------------|-------------------------|
E-7-7-7-7--8--7-7-7-7--10-|-7-7-7-7--8--7-7-7-7--10-|

G---------------------|
D---------------------|
A-7-7-7-7-10-10-10-10-|
E---------------------|

Chorus
G----------------|----------------|----------------|-----------------------|
D----------------|----------------|----------------|-----------------------|
A-----55---------|-----55---------|-----55---------|----55-----------------|
E-3-3----7-7-7-7-|-3-3----7-7-7-7-|-3-3----7-7-7-7-|3-3----5-5-5-5-5-5-5-5-|

G-----------------|
D-----------------|
A-----------------|
E-5-5-5-5-5-5-5-5-|

Outro
G----------------|----------------|----------------|-----------|
D----------------|----------------|----------------|-----------|
A-----55---------|-----55---------|-----55---------|----55-----|
E-3-3----7-7-7-7-|-3-3----7-7-7-7-|-3-3----7-7-7-7-|3-3----5---|


Share "Charlies Place" by Zero Boys


TOP 10 TABS

FRESH NEW TABS

ALL ARTISTS
artist wiki

TabSpace.com / contact us / privacy policy / tabspace toolbar
Copyright 2004 - 2022 TabSpace.com - All Rights Reserved.
song: charlies place bass tabs by zero boys