:: Guitar & Bass Tabs Make Home Page
A B C D E F G H I J K L M N O P Q R S T U V W X Y Z #

  for    

On TABSPACE
Info About This Tab
Artist: Katatonia
Tab Type: Bass
Difficulty: novice
Rate This Tab!
5 strings bass, standard BEADG tuning


VERSE

G -----------------------------------------------------------------|
D -----------------------------------------------------------------|
A -----------------------------------------------------------------|
E ----------------3-3-3-3------------------------------------------|
B 1-1-1-1-4-4-4-4---------3-3-3-3  (REPEAT A THOUSAND TIMES OR SO--|

CHORUS

G ----------------------------------|---------------------------------|
D ----------------------------------|---------------------------------|
A 3-5-6-5-3---3---1-1---1-----------|3-5-6-5-3---3---1-1---1----------|
E --------------------------1-1---1-|------------------------------1-1|
B ----------------------------------|---------------------------------|

G ----------------------------------|---------------------------------|
D ----------------------------------|---------------------------------|
A 3-5-6-5-3---3---1-1---1-----------|3-5-6-5-3---3---1-1---1----------|
E --------------------------1-1---1-|--------------------------1-1---1|
B ----------------------------------|---------------------------------|

G --------------|
D --------------|
A 3-5-6-5-------|
E --------4-----|
B --------------|

(play verse and chorus 2x, one after the other, then go straight to break)


BREAK

G ---------------|
D ---------------|
A 4-3-4-3-4-6-6-6|
E ---------------|
B ---------------|


G ----------------|----------------|----------------|----------------|
D ----------------|----------------|----------------|----------------|
A 3-3-3-3-3-6-6-6-|3-3-3-3-3-1-1-1-|3-3-3-3-3-6-6-6-|3S5---6-5-6-5-3-|
E ----------------|----------------|----------------|----------------|
B ----------------|----------------|----------------|----------------|

G ----------------|----------------|----------------|----------------|
D ----------------|----------------|----------------|----------------|
A 3-3-3-3-3-6-6-6-|3-3-3-3-3-1-1-1-|3-3-3-3-3-6-6-6-|----------------|
E ----------------|----------------|----------------|----------------|
B ----------------|----------------|----------------|----------------|

G ----------------|----------------|----------------|----------------|
D ----------------|----------------|----------------|----------------|
A 3-3-3-3-3-6-6-6-|3-3-3-3-3-1-1-1-|3-3-3-3-3-6-6-6-|3S5---6-5-6-5-3-|
E ----------------|----------------|----------------|----------------|
B ----------------|----------------|----------------|----------------|

G ----------------|----------------|----------------|----------------|
D ----------------|----------------|----------------|----------------|
A 3-3-3-3-3-6-6-6-|3-3-3-3-3-1-1-1-|3-3-3-3-3-6-6-6-|4-3-4-3-4-6-6-6-|
E ----------------|----------------|----------------|----------------|
B ----------------|----------------|----------------|----------------|

G ----------------|----------------|----------------|----------------|
D ----------------|----------------|----------------|----------------|
A 3-3-3-3-3-6-6-6-|3-3-3-3-3-1-1-1-|3-3-3-3-3-6-6-6-|----------------|
E ----------------|----------------|----------------|----------------|
B ----------------|----------------|----------------|----------------|

(REPEAT VERSE AND CHORUS)


Tabbed by Noctulius
noctulius@gmail.com - any doubts or suggestions


Thanks!


Share "Criminals" by Katatonia


TOP 10 TABS

FRESH NEW TABS

ALL ARTISTS
artist wiki

TabSpace.com / contact us / privacy policy / tabspace toolbar
Copyright 2004 - 2022 TabSpace.com - All Rights Reserved.
song: criminals bass tabs by katatonia