:: Guitar & Bass Tabs Make Home Page
A B C D E F G H I J K L M N O P Q R S T U V W X Y Z #

  for    

On TABSPACE
Info About This Tab
Artist: Zero Boys
Tab Type: Bass
Rate This Tab!
Intro
G------------------------|------------------------|
D------------------------|------------------------|
A-5----------3-----------|-5----------3-----------|
E------------------------|------------------------|

G------------------------|------------------------|
D------------------------|------------------------|
A-5----------3-----------|-5----------3-----------|
E------------------------|------------------------|

(DIRTY ALLEYS DIRTY MINDS)
G---------|
D---------|
A-33-0000-|
E---------|

Verse
G-------------|-------------|-------------|-------------|
D-------------|-------------|-------------|-------------|
A-------------|-------------|-------------|-------------|
E-2-2-2-2-2-5-|-2-2-2-2-2-5-|-2-2-2-2-2-5-|-2-2-2-2-2-5-|

Chorus (Livin on caffeine)
G-----------------|-----------------|-----------------|---------|
D--------5--------|--------5--------|--------5--------|---------|
A-5-5-5-5-3-3-3-3-|-5-5-5-5-3-3-3-3-|-5-5-5-5-3-3-3-3-|-33-0000-|
E-----------------|-----------------|-----------------|---------|

Verse
G-------------|-------------|-------------|-------------|
D-------------|-------------|-------------|-------------|
A-------------|-------------|-------------|-------------|
E-2-2-2-2-2-5-|-2-2-2-2-2-5-|-2-2-2-2-2-5-|-2-2-2-2-2-5-|

(whats the matter with you man, why aint you got a sun tan)
G------------------------|------------------------|
D-----------------3-3-3--|-----------------3-3-3--|
A-7-7-7-7-7-7-7-7--3-3-3-|-7-7-7-7-7-7-7-7--3-3-3-|
E------------------------|------------------------|

Chorus (livin on caffeine)
G-----------------|-----------------|-----------------|---------|
D--------5--------|--------5--------|--------5--------|---------|
A-5-5-5-5-3-3-3-3-|-5-5-5-5-3-3-3-3-|-5-5-5-5-3-3-3-3-|-33-0000-|
E-----------------|-----------------|-----------------|---------|

Solo
G-------------|-------------|-------------|-------------|
D-------------|-------------|-------------|-------------|
A-------------|-------------|-------------|-------------|
E-2-2-2-2-2-5-|-2-2-2-2-2-5-|-2-2-2-2-2-5-|-2-2-2-2-2-5-|

G-----------------|-----------------|-----------------|---------|
D--------5--------|--------5--------|--------5--------|---------|
A-5-5-5-5-3-3-3-3-|-5-5-5-5-3-3-3-3-|-5-5-5-5-3-3-3-3-|-33-0000-|
E-----------------|-----------------|-----------------|---------|

Verse
G-------------|-------------|-------------|-------------|
D-------------|-------------|-------------|-------------|
A-------------|-------------|-------------|-------------|
E-2-2-2-2-2-5-|-2-2-2-2-2-5-|-2-2-2-2-2-5-|-2-2-2-2-2-5-|

G------------------------|------------------------|
D-----------------3-3-3--|-----------------3-3-3--|
A-7-7-7-7-7-7-7-7--3-3-3-|-7-7-7-7-7-7-7-7--3-3-3-|
E------------------------|------------------------|
                          octive last part if you want
G------------------------|------------------------|
D-----------------3-3-3--|-----------------3-3-3--|
A-7-7-7-7-7-7-7-7--3-3-3-|-7-7-7-7-7-7-7-7--3-3-3-|
E------------------------|------------------------|





Share "Dirty Alleys-dirty Minds" by Zero Boys


TOP 10 TABS

FRESH NEW TABS

ALL ARTISTS
artist wiki

TabSpace.com / contact us / privacy policy / tabspace toolbar
Copyright 2004 - 2022 TabSpace.com - All Rights Reserved.
song: dirty alleys-dirty minds bass tabs by zero boys