:: Guitar & Bass Tabs Make Home Page
A B C D E F G H I J K L M N O P Q R S T U V W X Y Z #

  for    

On TABSPACE
Info About This Tab
Artist: Zero Boys
Tab Type: Bass
Rate This Tab!
Intro/Main riff       (for the record those are elevens)
G---------------------|x4
D-----1111-12-11------|
A-9-9-----------12-11-|
E---------------------|

Verse (main)
G---------------------|x4
D----1111-12-11-------|
A-9-9-----------12-11-|
E---------------------|

G-----------6789876-|
D--4567654-7--------|
A-5-----------------|
E-------------------|

Main riff 
G---------------------|x2
D----1111-12-11-------|
A-9-9-----------12-11-|
E---------------------|

                      (Down the Drain)
G-----------6789876-|----------------|
D--4567654-7--------|-------11-11-11-|
A-5-----------------|-9-9-9----------|
E-------------------|----------------|

Main
G---------------------|x4
D----1111-12-11-------|
A-9-9-----------12-11-|
E---------------------|

Verse (main)
G---------------------|x4
D----1111-12-11-------|
A-9-9-----------12-11-|
E---------------------|


G-----------6789876-|
D--4567654-7--------|
A-5-----------------|
E-------------------|

Main riff 
G---------------------|x2
D----1111-12-11-------|
A-9-9-----------12-11-|
E---------------------|

                      (Down the Drain)
G-----------6789876-|----------------|
D--4567654-7--------|-------11-11-11-|
A-5-----------------|-9-9-9----------|
E-------------------|----------------|

Behind Solo
G---------------------|x4
D----1111-12-11-------|
A-9-9-----------12-11-|
E---------------------|

G-----------6789876-|
D--4567654-7--------|
A-5-----------------|
E-------------------|

Main riff 
G---------------------|x2
D----1111-12-11-------|
A-9-9-----------12-11-|
E---------------------|

                      (Down the Drain)
G-----------6789876-|----------------|----------------|----------------|
D--4567654-7--------|-------11-11-11-|-------11-11-11-|-------11-11-11-|
A-5-----------------|-9-9-9----------|-9-9-9----------|-9-9-9----------|
E-------------------|----------------|----------------|----------------|


Share "Down The Drain" by Zero Boys


TOP 10 TABS

FRESH NEW TABS

ALL ARTISTS
artist wiki

TabSpace.com / contact us / privacy policy / tabspace toolbar
Copyright 2004 - 2022 TabSpace.com - All Rights Reserved.
song: down the drain bass tabs by zero boys