:: Guitar & Bass Tabs Make Home Page
A B C D E F G H I J K L M N O P Q R S T U V W X Y Z #

  for    

On TABSPACE
Info About This Tab
Artist: Zero Boys
Tab Type: Bass
Rate This Tab!
Intro
G---------------------------------|
D---------------------------------|
A-1--(RING)-------111111111111111-| played very sloppy
E---------------------------------|

Main Riff
G--------------------------------|--------------------------------|
D-1-1-1-1----------1-1-1-1-------|-1-1-1-1----------1-1-1-1-------|
A----------3-3-3-3---------3-1-3-|----------3-3-3-3---------3-1-3-|
E--------------------------------|--------------------------------|

Chorus
G-------------------|-------------------|
D--2345432----------|--2345432----------|
A-3-----------------|-3-----------------|
E----------3-3--3-3-|----------3-3--3-3-|

Verse
G--------------------------------|--------------------------------|
D-1-1-1-1----------1-1-1-1-------|-1-1-1-1----------1-1-1-1-------|
A----------3-3-3-3---------3-1-3-|----------3-3-3-3---------3-1-3-|
E--------------------------------|--------------------------------|

G--------------------------------|--------------------------------|
D-1-1-1-1----------1-1-1-1-------|-1-1-1-1----------1-1-1-1-------|
A----------3-3-3-3---------3-1-3-|----------3-3-3-3---------3-1-3-|
E--------------------------------|--------------------------------|

Chorus
G-------------------|-------------------|
D--2345432----------|--2345432----------|
A-3-----------------|-3-----------------|
E----------3-3--3-3-|----------3-3--3-3-|


Verse
G--------------------------------|--------------------------------|
D-1-1-1-1----------1-1-1-1-------|-1-1-1-1----------1-1-1-1-------|
A----------3-3-3-3---------3-1-3-|----------3-3-3-3---------3-1-3-|
E--------------------------------|--------------------------------|

G--------------------------------|--------------------------------|
D-1-1-1-1----------1-1-1-1-------|-1-1-1-1----------1-1-1-1-------|
A----------3-3-3-3---------3-1-3-|----------3-3-3-3---------3-1-3-|
E--------------------------------|--------------------------------|

Chorus
G-------------------|-------------------|
D--2345432----------|--2345432----------|
A-3-----------------|-3-----------------|
E----------3-3--3-3-|----------3-3--3-3-|

Solo
G--------------------------------|--------------------------------|
D-1-1-1-1----------1-1-1-1-------|-1-1-1-1----------1-1-1-1-------|
A----------3-3-3-3---------3-1-3-|----------3-3-3-3---------3-1-3-|
E--------------------------------|--------------------------------|

G-------------------|-------------------|
D--2345432----------|--2345432----------|
A-3-----------------|-3-----------------|
E----------3-3--3-3-|----------3-3--3-3-|

Verse
G--------------------------------|--------------------------------|
D-1-1-1-1----------1-1-1-1-------|-1-1-1-1----------1-1-1-1-------|
A----------3-3-3-3---------3-1-3-|----------3-3-3-3---------3-1-3-|
E--------------------------------|--------------------------------|

G--------------------------------|--------------------------------|
D-1-1-1-1----------1-1-1-1-------|-1-1-1-1----------1-1-1-1-------|
A----------3-3-3-3---------3-1-3-|----------3-3-3-3---------3-1-3-|
E--------------------------------|--------------------------------|

Chorus
G-------------------|-------------------|
D--2345432----------|--2345432----------|
A-3-----------------|-3-----------------|
E----------3-3--3-3-|----------3-3--3-3-|

G-------------------|-------------------|
D--2345432----------|--2345432----------|
A-3-----------------|-3-----------------|
E----------3-3--3-3-|----------3-3--3-3-|


Share "Forced Entry" by Zero Boys


TOP 10 TABS

FRESH NEW TABS

ALL ARTISTS
artist wiki

TabSpace.com / contact us / privacy policy / tabspace toolbar
Copyright 2004 - 2022 TabSpace.com - All Rights Reserved.
song: forced entry bass tabs by zero boys