:: Guitar & Bass Tabs Make Home Page
A B C D E F G H I J K L M N O P Q R S T U V W X Y Z #

  for    

On TABSPACE
Info About This Tab
Artist: Zero Boys
Tab Type: Bass
Rate This Tab!
Intro
G-----------------------------------------------------------|
D-----------------------------------------------------------|
A-5-5-5-5-5-5-5-5-7-7-7-7-7-7-7-7-----------7------------7--|
E---------------------------------7-7-7-7-7---7-7-7-7-7-----|

G-------------------------------------------------|
D-------------------------------------------------|
A-5-5-5-5-5-5-5-5-7-7-7-7-7-7-7-7-9-9-9-9-9-9-9-9-|
E-------------------------------------------------|

Verse                          x4                               
G-----------------------------|
D-----------------------------|
A-----------------5-7-5-7-5-7-|
E-7-7-7-7-7-7-7-7-------------|

Chorus
G-----------------------------------------------------------|
D-----------------------------------------------------------|
A-5-5-5-5-5-5-5-5-7-7-7-7-7-7-7-7-----------7------------7--|
E---------------------------------7-7-7-7-7---7-7-7-7-7-----|

G-----------------------------------------------------------|
D-----------------------------------------------------------|
A-5-5-5-5-5-5-5-5-7-7-7-7-7-7-7-7-----------7------------7--|
E---------------------------------7-7-7-7-7---7-7-7-7-7-----|

G-----------------------------------------------------------|
D-----------------------------------------------------------|
A-5-5-5-5-5-5-5-5-7-7-7-7-7-7-7-7-----------7------------7--|
E---------------------------------7-7-7-7-7---7-7-7-7-7-----|

G-------------------------------------------------|
D-------------------------------------------------|
A-5-5-5-5-5-5-5-5-7-7-7-7-7-7-7-7-9-9-9-9-9-9-9-9-|
E-------------------------------------------------|

Verse                          x4                               
G-----------------------------|
D-----------------------------|
A-----------------5-7-5-7-5-7-|
E-7-7-7-7-7-7-7-7-------------|

Chorus
G-----------------------------------------------------------|
D-----------------------------------------------------------|
A-5-5-5-5-5-5-5-5-7-7-7-7-7-7-7-7-----------7------------7--|
E---------------------------------7-7-7-7-7---7-7-7-7-7-----|

G-----------------------------------------------------------|
D-----------------------------------------------------------|
A-5-5-5-5-5-5-5-5-7-7-7-7-7-7-7-7-----------7------------7--|
E---------------------------------7-7-7-7-7---7-7-7-7-7-----|

G-----------------------------------------------------------|
D-----------------------------------------------------------|
A-5-5-5-5-5-5-5-5-7-7-7-7-7-7-7-7-----------7------------7--|
E---------------------------------7-7-7-7-7---7-7-7-7-7-----|

G-------------------------------------------------|
D-------------------------------------------------|
A-5-5-5-5-5-5-5-5-7-7-7-7-7-7-7-7-9-9-9-9-9-9-9-9-|
E-------------------------------------------------|

Solo                         x4                               
G-----------------------------|
D-----------------------------|
A-----------------5-7-5-7-5-7-|
E-7-7-7-7-7-7-7-7-------------|

Intro
G-----------------------------------------------------------|
D-----------------------------------------------------------|
A-5-5-5-5-5-5-5-5-7-7-7-7-7-7-7-7-----------7------------7--|
E---------------------------------7-7-7-7-7---7-7-7-7-7-----|

G-------------------------------------------------|
D-------------------------------------------------|
A-5-5-5-5-5-5-5-5-7-7-7-7-7-7-7-7-9-9-9-9-9-9-9-9-|
E-------------------------------------------------|

Verse                         x4                               
G-----------------------------|
D-----------------------------|
A-----------------5-7-5-7-5-7-|
E-7-7-7-7-7-7-7-7-------------|

Chorus
G-----------------------------------------------------------|
D-----------------------------------------------------------|
A-5-5-5-5-5-5-5-5-7-7-7-7-7-7-7-7-----------7------------7--|
E---------------------------------7-7-7-7-7---7-7-7-7-7-----|

G-----------------------------------------------------------|
D-----------------------------------------------------------|
A-5-5-5-5-5-5-5-5-7-7-7-7-7-7-7-7-----------7------------7--|
E---------------------------------7-7-7-7-7---7-7-7-7-7-----|

G-----------------------------------------------------------|
D-----------------------------------------------------------|
A-5-5-5-5-5-5-5-5-7-7-7-7-7-7-7-7-----------7------------7--|
E---------------------------------7-7-7-7-7---7-7-7-7-7-----|

G-------------------------------------------------|
D-------------------------------------------------|
A-5-5-5-5-5-5-5-5-7-7-7-7-7-7-7-7-9-9-9-9-9-9-9-9-|
E-------------------------------------------------|

Outro (whole Buncha Times
G------------------------|
D------------------------|
A-----------5-7-7-7-7h-5-|
E-7-7-7-7h---------------|

Very End
G---------------|
D---------------|
A-999999999-----|
E-----------7-7-|


Share "Hightime" by Zero Boys


TOP 10 TABS

FRESH NEW TABS

ALL ARTISTS
artist wiki

TabSpace.com / contact us / privacy policy / tabspace toolbar
Copyright 2004 - 2022 TabSpace.com - All Rights Reserved.
song: hightime bass tabs by zero boys