:: Guitar & Bass Tabs Make Home Page
A B C D E F G H I J K L M N O P Q R S T U V W X Y Z #

  for    

On TABSPACE
Info About This Tab
Artist: Zero Boys
Tab Type: Guitar
Rate This Tab!
Intro
E------------------------------------------------------------|
B------------------------------------------------------------|
G-7-7-7-7-7-7-7-7-9-9-9-9-9-9-9-9------------9------------9--|
D-7-7-7-7-7-7-7-7-9-9-9-9-9-9-9-9-9-9-9-9-9--9-9-9-9-9-9--9--|
A-5-5-5-5-5-5-5-5-7-7-7-7-7-7-7-7-9-9-9-9-9--7-9-9-9-9-9--7--|
E---------------------------------7-7-7-7-7----7-7-7-7-7-----|

E--------------------------------14-14-14-14-14-14-|
B--------------------------------14-14-14-14-14-14-|
G-7-7-7-7-7-7-7-7-9-9-9-9-9-9-9-9------------------|
D-7-7-7-7-7-7-7-7-9-9-9-9-9-9-9-9------------------|
A-5-5-5-5-5-5-5-5-7-7-7-7-7-7-7-7------------------|
E--------------------------------------------------|

Verse                          x4                               
E-----------------------------|
B-----------------------------|
G-----------------7-7-9-9-9-9-|
D-9-9-9-9-9-9-9-9-7-7-9-9-9-9-|
A-9-9-9-9-9-9-9-9-5-5-7-7-7-7-|
E-7-7-7-7-7-7-7-7-------------|

Chorus
E------------------------------------------------------------|
B------------------------------------------------------------|
G-7-7-7-7-7-7-7-7-9-9-9-9-9-9-9-9------------9------------9--|
D-7-7-7-7-7-7-7-7-9-9-9-9-9-9-9-9-9-9-9-9-9--9-9-9-9-9-9--9--|
A-5-5-5-5-5-5-5-5-7-7-7-7-7-7-7-7-9-9-9-9-9--7-9-9-9-9-9--7--|
E---------------------------------7-7-7-7-7----7-7-7-7-7-----|

E------------------------------------------------------------|
B------------------------------------------------------------|
G-7-7-7-7-7-7-7-7-9-9-9-9-9-9-9-9------------9------------9--|
D-7-7-7-7-7-7-7-7-9-9-9-9-9-9-9-9-9-9-9-9-9--9-9-9-9-9-9--9--|
A-5-5-5-5-5-5-5-5-7-7-7-7-7-7-7-7-9-9-9-9-9--7-9-9-9-9-9--7--|
E---------------------------------7-7-7-7-7----7-7-7-7-7-----|

E------------------------------------------------------------|
B------------------------------------------------------------|
G-7-7-7-7-7-7-7-7-9-9-9-9-9-9-9-9------------9------------9--|
D-7-7-7-7-7-7-7-7-9-9-9-9-9-9-9-9-9-9-9-9-9--9-9-9-9-9-9--9--|
A-5-5-5-5-5-5-5-5-7-7-7-7-7-7-7-7-9-9-9-9-9--7-9-9-9-9-9--7--|
E---------------------------------7-7-7-7-7----7-7-7-7-7-----|

E--------------------------------------------------|
B--------------------------------------------------|
G-7-7-7-7-7-7-7-7-9-9-9-9-9-9-9-9-1111111111111111-|
D-7-7-7-7-7-7-7-7-9-9-9-9-9-9-9-9-1111111111111111-|
A-5-5-5-5-5-5-5-5-7-7-7-7-7-7-7-7-9-9-9-9-9-9-9-9--|
E--------------------------------------------------|

Verse                          x4                               
E-----------------------------|
B-----------------------------|
G-----------------7-7-9-9-9-9-|
D-9-9-9-9-9-9-9-9-7-7-9-9-9-9-|
A-9-9-9-9-9-9-9-9-5-5-7-7-7-7-|
E-7-7-7-7-7-7-7-7-------------|

Chorus
E------------------------------------------------------------|
B------------------------------------------------------------|
G-7-7-7-7-7-7-7-7-9-9-9-9-9-9-9-9------------9------------9--|
D-7-7-7-7-7-7-7-7-9-9-9-9-9-9-9-9-9-9-9-9-9--9-9-9-9-9-9--9--|
A-5-5-5-5-5-5-5-5-7-7-7-7-7-7-7-7-9-9-9-9-9--7-9-9-9-9-9--7--|
E---------------------------------7-7-7-7-7----7-7-7-7-7-----|

E------------------------------------------------------------|
B------------------------------------------------------------|
G-7-7-7-7-7-7-7-7-9-9-9-9-9-9-9-9------------9------------9--|
D-7-7-7-7-7-7-7-7-9-9-9-9-9-9-9-9-9-9-9-9-9--9-9-9-9-9-9--9--|
A-5-5-5-5-5-5-5-5-7-7-7-7-7-7-7-7-9-9-9-9-9--7-9-9-9-9-9--7--|
E---------------------------------7-7-7-7-7----7-7-7-7-7-----|

E------------------------------------------------------------|
B------------------------------------------------------------|
G-7-7-7-7-7-7-7-7-9-9-9-9-9-9-9-9------------9------------9--|
D-7-7-7-7-7-7-7-7-9-9-9-9-9-9-9-9-9-9-9-9-9--9-9-9-9-9-9--9--|
A-5-5-5-5-5-5-5-5-7-7-7-7-7-7-7-7-9-9-9-9-9--7-9-9-9-9-9--7--|
E---------------------------------7-7-7-7-7----7-7-7-7-7-----|

E--------------------------------------------------|
B--------------------------------------------------|
G-7-7-7-7-7-7-7-7-9-9-9-9-9-9-9-9-1111111111111111-|
D-7-7-7-7-7-7-7-7-9-9-9-9-9-9-9-9-1111111111111111-|
A-5-5-5-5-5-5-5-5-7-7-7-7-7-7-7-7-9-9-9-9-9-9-9-9--|
E--------------------------------------------------|

Solo                                              x4    
E-14-14-14-14-14-14-14-14-16-14-14-16-14-14-16-14-|
B-14-14-14-14-14-14-14-14-16-14-14-16-14-14-16-14-|
G-------------------------------------------------|
D-------------------------------------------------|
A-------------------------------------------------|
E-------------------------------------------------|

Intro
E------------------------------------------------------------|
B------------------------------------------------------------|
G-7-7-7-7-7-7-7-7-9-9-9-9-9-9-9-9------------9------------9--|
D-7-7-7-7-7-7-7-7-9-9-9-9-9-9-9-9-9-9-9-9-9--9-9-9-9-9-9--9--|
A-5-5-5-5-5-5-5-5-7-7-7-7-7-7-7-7-9-9-9-9-9--7-9-9-9-9-9--7--|
E---------------------------------7-7-7-7-7----7-7-7-7-7-----|

E--------------------------------14-14-14-14-14-14-|
B--------------------------------14-14-14-14-14-14-|
G-7-7-7-7-7-7-7-7-9-9-9-9-9-9-9-9------------------|
D-7-7-7-7-7-7-7-7-9-9-9-9-9-9-9-9------------------|
A-5-5-5-5-5-5-5-5-7-7-7-7-7-7-7-7------------------|
E--------------------------------------------------|

Verse                          x4                               
E-----------------------------|
B-----------------------------|
G-----------------7-7-9-9-9-9-|
D-9-9-9-9-9-9-9-9-7-7-9-9-9-9-|
A-9-9-9-9-9-9-9-9-5-5-7-7-7-7-|
E-7-7-7-7-7-7-7-7-------------|

Chorus
E------------------------------------------------------------|
B------------------------------------------------------------|
G-7-7-7-7-7-7-7-7-9-9-9-9-9-9-9-9------------9------------9--|
D-7-7-7-7-7-7-7-7-9-9-9-9-9-9-9-9-9-9-9-9-9--9-9-9-9-9-9--9--|
A-5-5-5-5-5-5-5-5-7-7-7-7-7-7-7-7-9-9-9-9-9--7-9-9-9-9-9--7--|
E---------------------------------7-7-7-7-7----7-7-7-7-7-----|

E------------------------------------------------------------|
B------------------------------------------------------------|
G-7-7-7-7-7-7-7-7-9-9-9-9-9-9-9-9------------9------------9--|
D-7-7-7-7-7-7-7-7-9-9-9-9-9-9-9-9-9-9-9-9-9--9-9-9-9-9-9--9--|
A-5-5-5-5-5-5-5-5-7-7-7-7-7-7-7-7-9-9-9-9-9--7-9-9-9-9-9--7--|
E---------------------------------7-7-7-7-7----7-7-7-7-7-----|

E------------------------------------------------------------|
B------------------------------------------------------------|
G-7-7-7-7-7-7-7-7-9-9-9-9-9-9-9-9------------9------------9--|
D-7-7-7-7-7-7-7-7-9-9-9-9-9-9-9-9-9-9-9-9-9--9-9-9-9-9-9--9--|
A-5-5-5-5-5-5-5-5-7-7-7-7-7-7-7-7-9-9-9-9-9--7-9-9-9-9-9--7--|
E---------------------------------7-7-7-7-7----7-7-7-7-7-----|

E--------------------------------------------------|
B--------------------------------------------------|
G-7-7-7-7-7-7-7-7-9-9-9-9-9-9-9-9-1111111111111111-|
D-7-7-7-7-7-7-7-7-9-9-9-9-9-9-9-9-1111111111111111-|
A-5-5-5-5-5-5-5-5-7-7-7-7-7-7-7-7-9-9-9-9-9-9-9-9--|
E--------------------------------------------------|

Outro (whole Buncha Times
E------------------------|
B------------------------|
G-----------7-9-9-9-9-7--|
D-9-9-9-9---7-9-9-9-9--7-|
A-9-9-9-9---5-7-7-7-7h-5-|
E-7-7-7-7h---------------|

Very End
E----------------|
B----------------|
G----------------|
D-1111111111-9-9-|
A-999999999--9-9-|
E------------7-7-|
(those are 11's)


Share "Hightime" by Zero Boys


TOP 10 TABS

FRESH NEW TABS

ALL ARTISTS
artist wiki

TabSpace.com / contact us / privacy policy / tabspace toolbar
Copyright 2004 - 2022 TabSpace.com - All Rights Reserved.
song: hightime guitar tabs by zero boys