:: Guitar & Bass Tabs Make Home Page
A B C D E F G H I J K L M N O P Q R S T U V W X Y Z #

  for    

On TABSPACE
Info About This Tab
Artist: Zero Boys
Tab Type: Bass
Rate This Tab!
Intro
G--------|--------|--------|--------|--------|--------|--------|--------|
D--------|--------|--------|--------|--------|--------|--------|--------|
A--------|--------|--------|--------|--------|--------|--------|--------|
E-3--3-1-|-3--3-1-|-3--3-1-|-3--3-1-|-3--3-1-|-3--3-1-|-3--3-1-|-3--3-1-|

Verse (singing starts)
G--------|--------|--------|--------|--------|--------|--------|--------|
D--------|--------|--------|--------|--------|--------|--------|--------|
A--------|--------|--------|--------|-3--3-1-|-3--3-1-|--------|--------|
E-3--3-1-|-3--3-1-|-3--3-1-|-3--3-1-|--------|--------|-3--3-1-|-3--3-1-|

Chours (1960s died)          (Living in the 80s) 
G------------------|--------|--------|--------|--------|
D------------------|--------|--------|--------|--------|
A--5--5-8--5-5-4-3-|--(3)---|--------|--------|--------|
E------------------|--------|-3--3-1-|-3--3-1-|-3--3-1-|

Verse
G--------|--------|--------|--------|--------|--------|--------|--------|
D--------|--------|--------|--------|--------|--------|--------|--------|
A--------|--------|--------|--------|-3--3-1-|-3--3-1-|--------|--------|
E-3--3-1-|-3--3-1-|-3--3-1-|-3--3-1-|--------|--------|-3--3-1-|-3--3-1-|

Chorus                                                     
G------------------|--------|--------|--------|--------|---------|
D------------------|--------|--------|--------|--------|-(fill)--|
A--5--5-8--5-5-4-3-|--(3)---|--------|--------|--------|-5-5-6-5-|
E------------------|--------|-3--3-1-|-3--3-1-|-3--3-1-|---------|

Solo
G--------|--------|--------|--------|--------|--------|--------|--------|
D--------|--------|--------|--------|--------|--------|--------|--------|
A--------|--------|--------|--------|-3--3-1-|-3--3-1-|--------|--------|
E-3--3-1-|-3--3-1-|-3--3-1-|-3--3-1-|--------|--------|-3--3-1-|-3--3-1-|
                                                         
G------------------|--------|--------|--------|--------|---------|
D------------------|--------|--------|--------|--------|--(fill)-|
A--5--5-8--5-5-4-3-|--(3)---|--------|--------|--------|-5-5-6-5-|
E------------------|--------|-3--3-1-|-3--3-1-|-3--3-1-|---------|

Verse
G--------|--------|--------|--------|--------|--------|--------|--------|
D--------|--------|--------|--------|--------|--------|--------|--------|
A--------|--------|--------|--------|-3--3-1-|-3--3-1-|--------|--------|
E-3--3-1-|-3--3-1-|-3--3-1-|-3--3-1-|--------|--------|-3--3-1-|-3--3-1-|

Chorus                                                     
G------------------|-------------------------|
D------------------|-------------------------|
A--5--5-8--5-5-4-3-|-0-2-4-5--5-8--5-5-4-3---|
E------------------|-------------------------|

Outro
G--------|--------|--------|--------|--------|--------|--------|--------|
D--------|--------|--------|--------|--------|--------|--------|--------|
A--------|--------|--------|--------|--------|--------|--------|--------|
E-3--3-1-|-3--3-1-|-3--3-1-|-3--3-1-|-3--3-1-|-3--3-1-|-3--3-1-|-3--3-1-|

G--------|--------|--------|--------|--------|--------|--------|--------|
D--------|--------|--------|--------|--------|--------|--------|--------|
A--------|--------|--------|--------|--------|--------|--------|--------|
E-3----1-|-3----1-|-3----1-|-3----1-|-3----1-|-3----1-|-3----1-|-3----1-|


Share "Livin In The 80s" by Zero Boys


TOP 10 TABS

FRESH NEW TABS

ALL ARTISTS
artist wiki

TabSpace.com / contact us / privacy policy / tabspace toolbar
Copyright 2004 - 2022 TabSpace.com - All Rights Reserved.
song: livin in the 80s bass tabs by zero boys