:: Guitar & Bass Tabs Make Home Page
A B C D E F G H I J K L M N O P Q R S T U V W X Y Z #

  for    

On TABSPACE
Info About This Tab
Artist: Zero Boys
Tab Type: Bass
Rate This Tab!
Intro (Main Riff)
G---------------|---------------|
D--0--0--0--2-2-|--0--0--0------|
A-2--2--2--2----|-2--2--2--20-0-|
E---------------|---------------|

Verse
G---------------|---------------|---------------|---------------|
D---------------|---------------|---------------|---------------|
A-0-2-2-2-2-2-2-|-0-2-2-2-2-2-2-|-0-2-2-2-2-2-2-|-0-2-2-2-2-2-2-|
E---------------|---------------|---------------|---------------|

Chorus
G---------------------|---------------------|---------------------|-------|
D-5-5-4-4-4-2-2-2-2-2-|-5-5-4-4-4-2-2-2-2-2-|-5-5-4-4-4-2-2-2-2-2-|-------|
A---------------------|---------------------|---------------------|-break-|
E---------------------|---------------------|---------------------|-------|

Main Riff
G---------------|---------------|---------------|---------------|
D--0--0--0--2-2-|--0--0--0------|--0--0--0--2-2-|--0--0--0------|
A-2--2--2--2----|-2--2--2--20-0-|-2--2--2--2----|-2--2--2--20-0-|
E---------------|---------------|---------------|---------------|

Verse
G---------------|---------------|---------------|---------------|
D---------------|---------------|---------------|---------------|
A-0-2-2-2-2-2-2-|-0-2-2-2-2-2-2-|-0-2-2-2-2-2-2-|-0-2-2-2-2-2-2-|
E---------------|---------------|---------------|---------------|

Chorus
G---------------------|---------------------|---------------------|-------|
D-5-5-4-4-4-2-2-2-2-2-|-5-5-4-4-4-2-2-2-2-2-|-5-5-4-4-4-2-2-2-2-2-|-------|
A---------------------|---------------------|---------------------|-------|
E---------------------|---------------------|---------------------|-------|

Main Riff
G---------------|---------------|---------------|---------------|
D--0--0--0--2-2-|--0--0--0------|--0--0--0--2-2-|--0--0--0------|
A-2--2--2--2----|-2--2--2--20-0-|-2--2--2--2----|-2--2--2--20-0-|
E---------------|---------------|---------------|---------------|

Bridge (New Generation)
G-----------------|-----------------|-----------------|-----------------|
D-----------------|-----------------|-----------------|-----------------|
A---------0-0-0-0-|-5-5-5-5-2-2-2-2-|-----------------|-----------------|
E-3-3-3-3---------|-----------------|-3-3-3-3-5-5-5-5-|-7-7-7-7-7-7-7-7-|

New Generation
G-----------------|-----------------|-----------------|
D-----------------|-----------------|-----------------|
A---------0-0-0-0-|-5-5-5-5---2---2-|-----------------|
E-3-3-3-3---------|-----------------|-3-3-3-3-5-5-5-5-|

Main Riff
G---------------|---------------|---------------|---------------|
D--0--0--0--2-2-|--0--0--0------|--0--0--0--2-2-|--0--0--0------|
A-2--2--2--2----|-2--2--2--20-0-|-2--2--2--2----|-2--2--2--20-0-|
E---------------|---------------|---------------|---------------|

Solo
G-----------------|-----------------|-----------------|-----------------|
D-----------------|---4-7-4---------|-----------------|-----------------|
A---2-5-2--4-7-4--|-5---------6-9-6-|---2-5-2---4-7-4-|-----------------|
E-3-------5-------|---------7-------|-3-------5-------|-7-7-7-7-7-7-7-7-|

G-----------------|-----------------|-----------------|
D-----------------|---4-7-4---------|-----------------|
A---2-5-2--4-7-4--|-5---------6-9-6-|---2-5-2---4-7-4-|
E-3-------5-------|---------7-------|-3-------5-------|

Main Riff
G---------------|---------------|---------------|---------------|
D--0--0--0--2-2-|--0--0--0------|--0--0--0--2-2-|--0--0--0------|
A-2--2--2--2----|-2--2--2--20-0-|-2--2--2--2----|-2--2--2--20-0-|
E---------------|---------------|---------------|---------------|

Verse
G---------------|---------------|---------------|---------------|
D---------------|---------------|---------------|---------------|
A-0-2-2-2-2-2-2-|-0-2-2-2-2-2-2-|-0-2-2-2-2-2-2-|-0-2-2-2-2-2-2-|
E---------------|---------------|---------------|---------------|

Chorus
G---------------------|---------------------|---------------------|-------|
D-5-5-4-4-4-2-2-2-2-2-|-5-5-4-4-4-2-2-2-2-2-|-5-5-4-4-4-2-2-2-2-2-|-------|
A---------------------|---------------------|---------------------|-------|
E---------------------|---------------------|---------------------|-------|

End
G---|
D---|
A-2-|
E---|


Share "New Generation" by Zero Boys


TOP 10 TABS

FRESH NEW TABS

ALL ARTISTS
artist wiki

TabSpace.com / contact us / privacy policy / tabspace toolbar
Copyright 2004 - 2022 TabSpace.com - All Rights Reserved.
song: new generation bass tabs by zero boys