:: Guitar & Bass Tabs Make Home Page
A B C D E F G H I J K L M N O P Q R S T U V W X Y Z #

  for    

On TABSPACE
Info About This Tab
Artist: Zero Boys
Tab Type: Bass
Rate This Tab!
Intro
G-----------------------------------------------------------|
D----------------------------------------------------667788-|
A-----------------5-5-5-5-5-5-5-5-7-7-7-7-7-7-7-7-7-7-------|
E-5-5-5-5-5-5-5-5-------------------------------------------|

G-----------------------------------------------------------|
D----------------------------------------------------667788-|
A-----------------5-5-5-5-5-5-5-5-7-7-7-7-7-7-7-7-7-7-------|
E-5-5-5-5-5-5-5-5-------------------------------------------|

Verse
G-----------------------------------------------------------|
D----------------------------------------------------667788-|
A-----------------5-5-5-5-5-5-5-5-7-7-7-7-7-7-7-7-7-7-------|
E-5-5-5-5-5-5-5-5-------------------------------------------|

G-----------------------------------------------------------|
D-----------------------------------------------------------|
A-----------------5-5-5-5-5-5-5-5-7-7-7-7-7-7-7-7-777554422-|
E-5-5-5-5-5-5-5-5-------------------------------------------|

Pre-Chorus
G------------------------------------------------------------------|
D------------------------------------------------------------------|
A-5-5-5-5-5-5-5--7-7-7-7-7-7-7-7-----------------5-5-5-5-5-5-5-5-4-|
E--------------------------------5-5-5-5-5-5-5-5-------------------|

G-----------------------------------|
D-----------------------------------|
A-5-5-5-5-5-5-5-5-77-77-77-77-7-7-7-|
E-----------------------------------|

Chorus
G-------------------------------------------------------|
D-------------------------------------------------------|
A-----------------5-5-------------------7-7-7-7-7-7-7-7-|
E-5-5-5-5-5-5-5-5--5-5--5-5-5-5-5-5-5-5-----------------|

G---------------------------------------------------------------|
D---------------------------------------------------------------|
A-----------------5-5-------------------7-7-7-7-7-7-7-7-7-7-7-7-|
E-5-5-5-5-5-5-5-5--5-5--5-5-5-5-5-5-5-5-------------------------|

G-----------------------------|-------------------|
D-----------------------------|-------------------|
A-9/10-10-10-10-9/10-10-10-10-|----44774----44774-|
E-----------------------------|-5-5------5-5------|

G--------------------------------------|
D--------------------------------------|
A-8-8-8-8-8-8-8-8-7-7-7-7-7-7-77554422-|
E--------------------------------------|

Verse2
G-----------------------------------------------------------|
D----------------------------------------------------667788-|
A-----------------5-5-5-5-5-5-5-5-7-7-7-7-7-7-7-7-7-7-------|
E-5-5-5-5-5-5-5-5-------------------------------------------|

G-----------------------------------------------------------|
D-----------------------------------------------------------|
A-----------------5-5-5-5-5-5-5-5-7-7-7-7-7-7-7-7-777554422-|
E-5-5-5-5-5-5-5-5-------------------------------------------|

Pre-Chorus
G------------------------------------------------------------------|
D------------------------------------------------------------------|
A-5-5-5-5-5-5-5--7-7-7-7-7-7-7-7-----------------5-5-5-5-5-5-5-5-4-|
E--------------------------------5-5-5-5-5-5-5-5-------------------|

G-----------------------------------|
D-----------------------------------|
A-5-5-5-5-5-5-5-5-77-77-77-77-7-7-7-|
E-----------------------------------|

Chorus
G-------------------------------------------------------|
D-------------------------------------------------------|
A-----------------5-5-------------------7-7-7-7-7-7-7-7-|
E-5-5-5-5-5-5-5-5--5-5--5-5-5-5-5-5-5-5-----------------|

G---------------------------------------------------------------|
D---------------------------------------------------------------|
A-----------------5-5-------------------7-7-7-7-7-7-7-7-7-7-7-7-|
E-5-5-5-5-5-5-5-5--5-5--5-5-5-5-5-5-5-5-------------------------|

G-----------------------------|-------------------|
D-----------------------------|-------------------|
A-9/10-10-10-10-9/10-10-10-10-|----44774----44774-|
E-----------------------------|-5-5------5-5------|

G--------------------------------------|
D--------------------------------------|
A-8-8-8-8-8-8-8-8-7-7-7-7-7-7-77554422-|
E--------------------------------------|

Solo
G-----------------------------------------------------------|
D----------------------------------------------------667788-|
A-----------------5-5-5-5-5-5-5-5-7-7-7-7-7-7-7-7-7-7-------|
E-5-5-5-5-5-5-5-5-------------------------------------------|

G-----------------------------------------------------------|
D-----------------------------------------------------------|
A-----------------5-5-5-5-5-5-5-5-7-7-7-7-7-7-7-7-777554422-|
E-5-5-5-5-5-5-5-5-------------------------------------------|

G------------------------------------------------------------------|
D------------------------------------------------------------------|
A-5-5-5-5-5-5-5--7-7-7-7-7-7-7-7-----------------5-5-5-5-5-5-5-5-4-|
E--------------------------------5-5-5-5-5-5-5-5-------------------|

G-----------------------------------|
D-----------------------------------|
A-5-5-5-5-5-5-5-5-77-77-77-77-7-7-7-|
E-----------------------------------|


Verse 3 
G-----------------------------------------------------------|
D----------------------------------------------------667788-|
A-----------------5-5-5-5-5-5-5-5-7-7-7-7-7-7-7-7-7-7-------|
E-5-5-5-5-5-5-5-5-------------------------------------------|

G-----------------------------------------------------------|
D-----------------------------------------------------------|
A-----------------5-5-5-5-5-5-5-5-7-7-7-7-7-7-7-7-777554422-|
E-5-5-5-5-5-5-5-5-------------------------------------------|

Pre-Chorus
G------------------------------------------------------------------|
D------------------------------------------------------------------|
A-5-5-5-5-5-5-5--7-7-7-7-7-7-7-7-----------------5-5-5-5-5-5-5-5-4-|
E--------------------------------5-5-5-5-5-5-5-5-------------------|

G-----------------------------------|
D-----------------------------------|
A-5-5-5-5-5-5-5-5-77-77-77-77-7-7-7-|
E-----------------------------------|

Chorus
G-------------------------------------------------------|
D-------------------------------------------------------|
A-----------------5-5-------------------7-7-7-7-7-7-7-7-|
E-5-5-5-5-5-5-5-5--5-5--5-5-5-5-5-5-5-5-----------------|

G---------------------------------------------------------------|
D---------------------------------------------------------------|
A-----------------5-5-------------------7-7-7-7-7-7-7-7-7-7-7-7-|
E-5-5-5-5-5-5-5-5--5-5--5-5-5-5-5-5-5-5-------------------------|


Outro Chorus
G-------------------------------------------------------|
D-------------------------------------------------------|
A-----------------7-7-------------------9-9-9-9-9-9-9-9-|
E-7-7-7-7-7-7-7-7--7-7--7-7-7-7-7-7-7-7-----------------|

G-------------------------------------------------------|
D-------------------------------------------------------|
A-----------------7-7-------------------9-9-9-9-9-9-9-9-|
E-7-7-7-7-7-7-7-7--7-7--7-7-7-7-7-7-7-7-----------------|

G-------------|-------------|-------------|-----------------------|
D-------------|-------------|-------------|-----------------------|
A-11/12-12-12-|-11/12-12-12-|-11/12-12-12-|-11/12-12-12-----------|
E-------------|-------------|-------------|-------------7----7----|

G------------|------------|------------|------------|----------------------|
D------------|------------|------------|------------|----------------------|
A-9/10-10-10-|-9/10-10-10-|-9/10-10-10-|-9/10-10-10-|-5-5-5-2-2-2-3-3-3-00-|
E------------|------------|------------|------------|----------------------|



Share "Trying Harder" by Zero Boys


TOP 10 TABS

FRESH NEW TABS

ALL ARTISTS
artist wiki

TabSpace.com / contact us / privacy policy / tabspace toolbar
Copyright 2004 - 2022 TabSpace.com - All Rights Reserved.
song: trying harder bass tabs by zero boys