:: Guitar & Bass Tabs Make Home Page
A B C D E F G H I J K L M N O P Q R S T U V W X Y Z #

  for    

On TABSPACE
Info About This Tab
Artist: Zero Boys
Tab Type: Bass
Rate This Tab!
Intro
G---------------------------|---------------------------|
D---------------------------|---------------------------|
A---------------------------|---------------------------|
E-2020202020202020-4-5--445-|-2020202020202020-4-5--445-|

G---------------------------|---------------------------|
D---------------------------|---------------------------|
A---------------------------|---------------------------|
E-2020202020202020-4-5--445-|-2020202020202020-4-5--445-|

Verse
G------------|------------|------------|-----------|
D------------|------------|------------|-----------|
A------------|--------5-4-|------------|--------7--|
E-7-7-7--4-5-|-7-7-7------|-7-7-7--4-5-|-7-7-7-----|

G------------|------------|------------|--------|
D------------|------------|------------|--------|
A------------|--------5-4-|------------|--------|
E-7-7-7--4-5-|-7-7-7------|-7-7-7--4-5-|-7-7-7--|

Chorus
G------------|------11----|------------|------------|
D------------|---11----11-|------------|------------|
A-7----------|-9----------|-7----------|-9-9-9------|
E------------|------------|------------|------------|

intro
G---------------------------|---------------------------|
D---------------------------|---------------------------|
A---------------------------|---------------------------|
E-2020202020202020-4-5--445-|-2020202020202020-4-5--445-|

G---------------------------|---------------------------|
D---------------------------|---------------------------|
A---------------------------|---------------------------|
E-2020202020202020-4-5--445-|-2020202020202020-4-5--445-|

Verse
G------------|------------|------------|-----------|
D------------|------------|------------|-----------|
A------------|--------5-4-|------------|--------7--|
E-7-7-7--4-5-|-7-7-7------|-7-7-7--4-5-|-7-7-7-----|

G------------|------------|------------|--------|
D------------|------------|------------|--------|
A------------|--------5-4-|------------|--------|
E-7-7-7--4-5-|-7-7-7------|-7-7-7--4-5-|-7-7-7--|

Chorus
G------------|------11----|------------|------------|
D------------|---11----11-|------------|------------|
A-7----------|-9----------|-7----------|-9-9-9------|
E------------|------------|------------|------------|

G------------|------11----|------------|------------|
D------------|---11----11-|------------|------------|
A-7----------|-9----------|-7----------|-9-9-9------|
E------------|------------|------------|------------|


Share "You Can Touch Me" by Zero Boys


TOP 10 TABS

FRESH NEW TABS

ALL ARTISTS
artist wiki

TabSpace.com / contact us / privacy policy / tabspace toolbar
Copyright 2004 - 2022 TabSpace.com - All Rights Reserved.
song: you can touch me bass tabs by zero boys