:: Guitar & Bass Tabs Make Home Page
A B C D E F G H I J K L M N O P Q R S T U V W X Y Z #

  for    

On TABSPACE
Info About This Tab
Artist: 36 Crazyfists
Tab Type: Guitar
Rate This Tab!
36 crazyfists - snow capped romance - bloodwork

dropped d tuning
  
intro / bridge

e|------------------------------------------------------------|
B|------------------------------------------------------------|
G|------------------------------------------------------------|
D|----77-88-77----77-88-77----77-88-77------1010-88-77--------|
A|-55---------------------------------------------------------|
D|-------------88----------55----------1010-------------------|

e|------------------------------------------------------------|
B|------------------------------------------------------------|
G|------------------------------------------------------------|
D|----77-88-77----77-88-77----77-88-77------1010-88-7~~-------|
A|-55---------------------------------------------------------|
D|-------------88----------55----------1010-------------------|

2nd riff (CHORUS)

e|----------------------------------------------------|
B|----------------------------------------------------|
G|----------------------------------------------------|
D|---7-7-7--5--7-7-7--5---0-0-10-10-8-8-7-7-----------|
A|---7-7-7--5--7-7-7--5---0-0-10-10-8-8-7-7-----------|
D|---7-7-7--5--7-7-7--5---0-0-10-10-8-8-7-7-----------|

e|---------------------------------------------|
B|---------------------------------------------|
G|------------------------------12/10/9--------|
D|---5-5-5--3--5-5-5--3---0-0------------------|
A|---5-5-5--3--5-5-5--3---0-0---10/8-/7--------|
D|---5-5-5--3--5-5-5--3---0-0------------------|

(bridge 4x)

CHORUS
e|----------------------------------------------------|
B|----------------------------------------------------|
G|----------------------------------------------------|
D|---7-7-7--5--7-7-7--5---0-0-10-10-8-8-7-7-----------|
A|---7-7-7--5--7-7-7--5---0-0-10-10-8-8-7-7-----------|
D|---7-7-7--5--7-7-7--5---0-0-10-10-8-8-7-7-----------|

e|---------------------------------------------|
B|---------------------------------------------|
G|------------------------------12/10/9--------|
D|---5-5-5--3--5-5-5--3---0-0------------------|
A|---5-5-5--3--5-5-5--3---0-0---10/8-/7--------|
D|---5-5-5--3--5-5-5--3---0-0------------------|

e|----------------------------------------------------|
B|----------------------------------------------------|
G|----------------------------------------------------|
D|---7-7-7--5--7-7-7--5---0-0-10-10-8-8-7-7-----------|
A|---7-7-7--5--7-7-7--5---0-0-10-10-8-8-7-7-----------|
D|---7-7-7--5--7-7-7--5---0-0-10-10-8-8-7-7-----------|

e|---------------------------------------------|
B|---------------------------------------------|
G|------------------------------12/10/9--------|
D|---5-5-5--3--5-5-5--3---0-0------------------|
A|---5-5-5--3--5-5-5--3---0-0---10/8-/7--------|
D|---5-5-5--3--5-5-5--3---0-0------------------|

e|-------------------------------------|
B|-------------------------------------|
G|---7/9/10/12-------------------------|
D|---------------5-5-5-5-5-5-3-3-------|
A|---5/7/8-/10---5-5-5-5-5-5-3-3-------|
D|---------------5-5-5-5-5-5-3-3-------|

e|-------------------------------------|
B|-------------------------------------|
G|---7/9/10/12-------------------------|
D|---------------5-5-5-5-5-5-3-3-------|
A|---5/7/8-/10---5-5-5-5-5-5-3-3-------|
D|---------------5-5-5-5-5-5-3-3-------|

(bridge 4x)
(CHORUS)

interlude/outro 4x
e|-------------------------------------|
B|-------------------------------------|
G|-------------------------------------|
D|--0-0-0--0-0-0--0-0-0--x-5-----------|
A|--0-0-0--0-0-0--0-0-0--x-3-----------|
D|--0-0-0--0-0-0--0-0-0--x-------------|

3x (in the last one dont play the two last chords)
e|-------------------------------------|
B|-------------------------------------|
G|-------------------------------------|
D|--0-0-0--0-0-0--0-0-0--5-5-----------|
A|--0-0-0--0-0-0--0-0-0--3-3-----------|
D|--0-0-0--0-0-0--0-0-0----------------|

(chorus)
(outro)

I know this is not 100% perfect, but better than nothing :D

-Maizzi


Share "Bloodwork" by 36 Crazyfists


TOP 10 TABS

FRESH NEW TABS

ALL ARTISTS
artist wiki

mp3bear.com
TabSpace.com / contact us / privacy policy / tabspace toolbar
Copyright 2004 - 2016 TabSpace.com - All Rights Reserved.
song: bloodwork guitar tabs by 36 crazyfists

0.002