:: Guitar & Bass Tabs Make Home Page
A B C D E F G H I J K L M N O P Q R S T U V W X Y Z #

  for    

On TABSPACE
Info About This Tab
Artist: Anuprastha
Tab Type: Guitar
Rate This Tab!
Intro
E||----------------------------------------------------|
B||----------------------------------------------------|
G||----------------------------------------------------|
D||----------------------------------------------------|
A||--3h-5-5-5-3h-5-5-5-3h-5-5-5-3h-5-5-5---------------|
E||----------------------------------------------------|

-----------------------------------------------|
-----------------------------------------------|
-----------------------------------------------|
---------------3h-5-5-5-3h-5-5-5-3h-5----------|
--5p-3---3-5-----------------------------------|
-------5---------------------------------------|

-------------------------------------------------|
-------------------------------------------------|
-------------------------------------------------|
--5-5-3h-5-5-5-5p-3---3-5---5h-7-7-7-------------|
--------------------------5----------------------|
-------------------------------------------------|

---------------------------------------------------|
---------------------------------------------------|
---------------------------------------------------|
--5h-7-7-7-5h-7-7-7-5h-7-7-7-7p-5---5--------------|
-------------------------------------------7-------|
---------------------------------------------------|

---------------------------------------------------|
---------------------------------------------------|
---------------------------------------------------|
---------------------------------------------------|
--7---3h-5-5-5-3h-5-5-5-3h-5-5-5-3h-5--------------|
---------------------------------------------------|

-------------------------------|
-------------------------------|
-------------------------------|
-------------------------------|
--5-5-5p-3---3-5---------------|
-------------5-----------------|

Chords arrangement:

            D         D            G         G                A         A
E||--2---------2---------|--3---------3---------|--0---------0--------------|
B||--3---------3---------|--0---------0---------|--2---------2--------------|
G||--2---------2---------|--0---------0---------|--2---------2--------------|
D||--0---------0---------|--0---------0---------|--2---------2--------------|
A||-----------------------|--2---------2---------|--0---------0-------------|
E||-----------------------|--3---------3---------|--------------------------|

     D         D            D                           A         A
 --2---------2---------|--2----------------|--0---------0-------------|
 --3---------3---------|--3----------------|--2---------2-------------|
 --2---------2---------|--2----------------|--2---------2-------------|
 --0---------0---------|--0----------------|--2---------2-------------|
 -----------------------|--------------------|--0---------0-----------|
 -----------------------|--------------------|------------------------|


  G         A                  D         D                G
--3---------0---------|--2---------2---------|--3--------------------|
--0---------2---------|--3---------3---------|--0--------------------|
--0---------2---------|--2---------2---------|--0--------------------|
--0---------2---------|--0---------0---------|--0--------------------|
--2---------0---------|-----------------------|--2-------------------|
--3-------------------|-----------------------|--3-------------------|


  D                         G                   A
--2----------------|--3----------------|--0----------------|
--3----------------|--0----------------|--2----------------|
--2----------------|--0----------------|--2----------------|
--0----------------|--0----------------|--2----------------|
-------------------|--2----------------|--0----------------|
-------------------|--3----------------|-------------------|

G
--3----------------||
--0----------------||
--0----------------||
--0----------------||
--2----------------||
--3----------------||
http://musicmyth.blogspot.com


Share "Din Intro" by Anuprastha


TOP 10 TABS

FRESH NEW TABS

ALL ARTISTS
artist wiki

mp3bear.com
TabSpace.com / contact us / privacy policy / tabspace toolbar
Copyright 2004 - 2016 TabSpace.com - All Rights Reserved.
song: din intro guitar tabs by anuprastha

0.013