:: Guitar & Bass Tabs Make Home Page
A B C D E F G H I J K L M N O P Q R S T U V W X Y Z #

  for    

On TABSPACE
Info About This Tab
Artist: Canalterror
Tab Type: Guitar
Rate This Tab!
Canalterror - Multis

Intro: Pickslide down the E-string and B (-244---)

Verse:
e:----------------|----------------|
b:----------------|----------------|
g:4-4-4-4-4-4-4-4-|----------------|
d:4-4-4-4-4-4-4-4-|5-5-5-5-2-2-2-2-|
a:2-2-2-2-2-2-2-2-|5-5-5-5-2-2-2-2-|
e:----------------|3-3-3-3-0-0-0-0-|
                          
Tote Fische, Gift im Boden, Luft verpesten, Wälder roden
Babynahrung, Killerwaffen, raffen raffen raffen raffen
Düngemittel und Kanonen, konzentrierte Produktion
Leben für den Zinseszins zur Maximierung des Gewinns

Fill 2x
e:----------------|----------------|
b:----------------|----------------|
g:4-4-4-4-7-6-4---|----------------|
d:--------------7-|5-5-5-5-----4---|
a:----------------|--------7-7-----|
e:----------------|----------------|

Pre Chorus 
e:----------------|----------------|----------------|----------------|
b:----------------|----------------|----------------|----------------|
g:----------------|----------------|----------------|7-7-7-7-7-7-7---|
d:4-4-4-4-4-4-4-4-|5-5-5-5-5-5-5-5-|4-4-4-4-4-4-4-4-|7-7-7-7-7-7-7---|
a:4-4-4-4-4-4-4-4-|5-5-5-5-5-5-5-5-|4-4-4-4-4-4-4-4-|5-5-5-5-5-5-5---|
e:2-2-2-2-2-2-2-2-|3-3-3-3-3-3-3-3-|2-2-2-2-2-2-2-2-|----------------|
 PM_________________________________________________                          

Die Multinationalen haben die Welt in ihrer Hand
Die Multinationalen sind die Herren in diesem Land

Chorus:
e:----------------|----------------|----------------|----------------|
b:----------------|----------------|----------------|----------------|
g:7-7-7-7-7-7-7-7-|----------------|----------------|----------------|
d:7-7-7-7-7-7-7-7-|7-7-7-7-7-7-7-7-|9-9-9-9-9-9-9-9-|5-5-5-5-5-5-5-5-|
a:5-5-5-5-5-5-5-5-|7-7-7-7-7-7-7-7-|9-9-9-9-9-9-9-9-|5-5-5-5-5-5-5-5-|
e:----------------|5-5-5-5-5-5-5-5-|7-7-7-7-7-7-7-7-|3-3-3-3-3-3-3-3-|

Kalkulieren, subtrahieren, produzieren, ausradieren
Zur Maximierung des Gewinns, zur Maximierung des Gewinns
Kalkulieren, subtrahieren, produzieren, ausradieren
Zur Maximierung des Gewinns, zur Maximierung des Gewinns

Verse:
Strategie der Unterdrückung und der Manipulation
Menschenwürde, Freiheit, Gleichheit, alle Werte blanker Hohn
Was sie tun für nur ein Ziel, Mitleid fehlt da nicht mher viel
Menschenopfer für den Zins zur Maximierung des Gewinns

Fill

Pre Chorus

Chorus

Verse:
Lebensqualität erhöhen haben die Multis nicht im Sinn
Das Primärziel ihrer Wirtschaft lautet nur Bilanzgewinn
Nur ein Wort kann sie erheitern, das heißt Kapital erweitern
Und wir alle zahlen den Zins zur Maximierung des Gewinns

Pre Chorus

Chorus


Share "Multis" by Canalterror


TOP 10 TABS

FRESH NEW TABS

ALL ARTISTS
artist wiki

mp3bear.com
TabSpace.com / contact us / privacy policy / tabspace toolbar
Copyright © 2004 - 2016 TabSpace.com - All Rights Reserved.
song: multis guitar tabs by canalterror

0.002