:: Guitar & Bass Tabs Make Home Page
A B C D E F G H I J K L M N O P Q R S T U V W X Y Z #

  for    

On TABSPACE
Info About This Tab
Artist: Dag Nasty
Tab Type: Bass
Rate This Tab!
My dog's a cat:
Dag nasty:
PLEASE RATE!!


  (PLAY 6 TIMES)
G---------------------------------------------------------------------------|
D---------------------------------------------------------------------------|
A---------------------------------------------------------------------------|
E----5-5-5-5-5-5-5-5-5-5-5-5-5-5-5-5----2-2-2-2-2-2-2-2---1-1-1-1-1-1-1-1---|


G---------------------------------------------------------------------------|
D---------------------------------------------------------------------------|
A-----7-7-7----5-5----------------------------------------------------------|
E--------------------6-6-6--------------------------------------------------|


G---------------------------------------------------------------------------|
D---------------------------------------------------------------------------|
A-----7-7-7-----5-5---------------------------------------------------------|
E--------------------10-9-8-7-6---------------------------------------------|


G---------------------------------------------------------------------------|
D---------------------------------------------------------------------------|
A----7-7-7------5-5---------------------------------------------------------|
E---------------------6-6-6-------------------------------------------------|


G---------------------------------------------------------------------------|
D---------------------------------------------------------------------------|
A----7-7-7----5-5-----------------------------------------------------------|
E---------------------10-10-10-9-8-7-6--------------------------------------|

  (PLAY 2 TIMES)
G---------------------------------------------------------------------------|
D---------------------------------------------------------------------------|
A---------------------------------------------------------------------------|
E----5-5-5-5-5-5-5-5-5-5-5-5-5-5-5-5----2-2-2-2-2-2-2-2---1-1-1-1-1-1-1-1---|


   (8 TIMES)
G---------------------------------------------------------------------------|
D---------------------------------------------------------------------------|
A---------------------------------------------------------------------------|
E------5-(KEEP RINGING)----2-(KEEP RINGING)--1-(KEEP RINGING)---------------|


PLEASE RATE!!

END


Share "My Dogs A Cat" by Dag Nasty


TOP 10 TABS

FRESH NEW TABS

ALL ARTISTS
artist wiki

TabSpace.com / contact us / privacy policy / tabspace toolbar
Copyright 2004 - 2020 TabSpace.com - All Rights Reserved.
song: my dogs a cat bass tabs by dag nasty