:: Guitar & Bass Tabs Make Home Page
A B C D E F G H I J K L M N O P Q R S T U V W X Y Z #

  for    

On TABSPACE
Info About This Tab
Artist: Talisman
Tab Type: Bass
Difficulty: intermediate
Tuning: Half-Step Down
Rate This Tab!

WARNING: You are trying to view
content from Ultimate-Guitar.com
in an unauthorized application,
which is prohibited.

Please use an official Ultimate
Guitar Tabs application for iPhone,
iPad or Android to access legitimate
chords, guitar, bass, and drum tabs
from Ultimate-Guitar.com database.

Type "ultimate guitar tabs" in Apple
App Store's or Android Market's
search to find the application.
Artist: Talisman
Song: Mysterious
Album: Genesis

It was quite difficult to write the whole song down, but it should be almost
right. The Lyrics doesn't fit always with the tab, but you'll make it. :-)

INTRO

F#|---------------------|------------------------|
C#|---------------------|------------------0-----|
G#|---------------------|-2----2-2-2--0p2p4-420--|
D#|--2---2p02---0-0~----|------------------------|
 -
F#|---------------------|---------------------|
C#|---------------------|---------------------|
G#|---------------------|-2----2-2-2------0---|
D#|--2---2p02--0-0~-----|-------------------0-|
 -
F#|---------------------|------------------------|
C#|---------------------|------------------0-----|
G#|---------------------|-2----2-2-2--0p2p4-420--|
D#|--2---2p02---0-0~----|------------------------|

                                             Girl, what's on your mind
F#|----------------------|------------------|--------------------|
C#|----------------------|------------------|--------------------|
G#|----------------------|-2--2-2-2--0-4-5--|--5----5-4----------|
D#|--2---2p02---0-0~-----|------------------|-------------2--2-2-|

     You got something that's ailing you, I'm dying for...            Your fantasy, if 
you want me to be
F#|------------------------------------|------------------|------------------------------|
C#|------------------4-4---4-----------|------------------|-420--------------------------|
G#|---4-5---5-7----7-----4------0-4-5--|--5--4--4---------|----4-2----2-2-02p0--4----4-4-|
D#|-5-------------------------2--------|-----------2--2-2-|------------------------------|


CHORUS 1
(Can't let you go,)

                Can't let you go,
F#|--------------------|----------------------|
C#|--------------------|----------------0-----|
G#|--------------------|-2--2-2-2--0p2p4-420--|
D#|--2---2p02---0-0~---|----------------------|

   It's so mysterious,         So let me know,
F#|---------------------|---------------------|
C#|---------------------|---------------------|
G#|---------------------|-2----2-2-2------0---|
D#|--2---2p02--0-0~-----|-------------------0-|

   'cause I gotta know
F#|--------------------|----------------------|
C#|--------------------|----------------0-----|
G#|--------------------|-2--2-2-2--0p2p4-420--|
D#|--2---2p02---0-0~---|----------------------|

   This time it's serious..                  All the years gone by
F#|----------------------|------------------|--------------------|
C#|----------------------|------------------|--------------------|
G#|----------------------|-2--2-2-2--0-4-5--|--5----5-4----------|
D#|--2---2p02---0-0~-----|------------------|-------------2--2-2-|

   Seems i've been walking alone     But now with you..             I'll claim your 
love, show you...
F#|------------------------------------|------------------|------------------------------|
C#|------------------4-4---4-----------|------------------|-420--------------------------|
G#|---4-5---5-7----7-----4------0-4-5--|--5--4--4---------|----4-2----2-2-02p0--4----4-4-|
D#|-5-------------------------2--------|-----------2--2-2-|------------------------------|

CHORUS 2
(Can't let you go,)

                Can't let you go,
F#|--------------------|----------------------|
C#|--------------------|----------------0-----|
G#|--------------------|-2--2-2-2--0p2p4-420--|
D#|--2---2p02---0-0~---|----------------------|

   It's so mysterious,         So let me know,
F#|---------------------|---------------------|
C#|---------------------|---------------------|
G#|---------------------|-2----2-2-2------0---|
D#|--2---2p02--0-0~-----|-------------------0-|

   'cause I gotta know
F#|--------------------|----------------------|
C#|--------------------|----------------0-----|
G#|--------------------|-2--2-2-2--0p2p4-420--|
D#|--2---2p02---0-0~---|----------------------|

   This time it's serious..
F#|----------------------|-----------------|
C#|----------------------|-----------------|
G#|----------------------|-2--2-2-2--0-----|
D#|--2---2p02---0-0~-----|-------------0---|


BREAK

   Fill my mind with things to say, yes you do...
F#|------------------------------------|
C#|------------------------------------| (3x)
G#|-----------------------------234----|
D#|--2----2-2-----2-----2-2---5--------|

             .... inside of me.
F#|----------------------5~----|
C#|----------------------5~----|
G#|--------------5-5-5---7~----|
D#|--2----2--2-----------------|

SOLO

F#|----------------------------------|
C#|----------------------------------| (8x)
G#|----------------------------------|
D#|--2--2-2-2-0--2---2--2-2-2-0-5-0--|

F#|--------------------------------|
C#|--------------------------------|
G#|--------------------------------|
D#|--2--2-2-2-0--2--2-2--2-2--2-2--|

(So where do i draw the line)
   Tell me what do you want me to do.  Cause I've been waiting..  If you feel the same, 
forever keep the flame
F#|------------------------------------|------------------|------------------------------|
C#|------------------4-4---4-----------|------------------|-420--------------------------|
G#|---4-5---5-7----7-----4------0-4-5--|--5--4--4---------|----4-2----2-2-02p0--4----4-4-|
D#|-5-------------------------2--------|-----------2--2-2-|------------------------------|

CHORUS (3x)

BREAK
                      Can't let you go..
F#|------------------------------------|
C#|------------------------------------| (3x)
G#|-----------------------------234----|
D#|--2----2-2-----2-----2-2---5--------|

   ... can't let you go..
F#|----------------------5~----|
C#|----------------------5~----|
G#|--------------5-5-5---7~----|
D#|--2----2--2-----------------|

ENDING

F#|-------------------------|--------------------------|
C#|-424-2---424-2-----------|-424-2----424-2-----------|
G#|----4-420---4-420--2-0---|----4-420----4-420--------|
D#|-----------------------2-|--------------------2-0-2-|


Share "Mysterious" by Talisman


TOP 10 TABS

FRESH NEW TABS

ALL ARTISTS
artist wiki

TabSpace.com / contact us / privacy policy / tabspace toolbar
Copyright 2004 - 2020 TabSpace.com - All Rights Reserved.
song: mysterious bass tabs by talisman