:: Guitar & Bass Tabs Make Home Page
A B C D E F G H I J K L M N O P Q R S T U V W X Y Z #

  for    

On TABSPACE
Info About This Tab
Artist: Idlewild
Tab Type: Guitar
Difficulty: novice
Rate This Tab!
iDLEWiLD
4 People Do Good

Guitar tuned down half a step (Eb, Ab, Db, Gb, Bb, Eb)

Intro Riff
Eb--|-----|---------|
Bb--|-----|---------|
Gb--|-9-9-|--9-9-9--|
Db--|-9-9-|--9-9-9--|
Ab--|-7-7-|--7-7-7--|
Eb--|-----|---------|
      x 1    x 15

Main Riff
Eb---------------------------------|
Bb---------------------------------|
Gb----------------------10--10-10--|
Db--7--7--7-7-7-3--3-3--10--10-10--|
Ab--7--7--7-7-7-3--3-3--8---8--8---|
Eb--5--5--5-5-5-1--1-1-------------| Play x 8

Verse Riff A
You can't always be the strange one...
Eb--------------------------|
Bb--------------------------|
Gb--------------------------|
Db--7--7/9--9/10--10\9--9\--|
Ab--7--7/9--9/10--10\9--9\--|
Eb--5--5/7--7/8----8\7--7\--| Play x 2

Verse Riff B
Eb-----------------------------------------------------------------|
Bb-----------------------------------------------------------------|
Gb-----------------------------------------------------------------|
Db--7--7--7-7-7-7-9--9--9-9-9-9-10--10--10-10-10-10-9--9--9-9-9-9--|
Ab--7--7--7-7-7-7-9--9--9-9-9-9-10--10--10-10-10-10-9--9--9-9-9-9--|
Eb--5--5--5-5-5-5-7--7--7-7-7-7-8---8---8--8--8--8--7--7--7-7-7-7--| Play x 2

Then play Main Riff x 8

Break Riff (Guitar 1)
Eb-------------------------------------|
Bb-------------------------------------|
Gb--9--9--9-9-x-x-10--10-10--10-10-10--|
Db--9--9--9-9-x-x-10--10-10--10-10-10--|
Ab--7--7--7-7-x-x-8---8--8---8--8--8---|
Eb-------------------------------------|

Break Riff (Guitar 2)
Eb---------------------------------------------|
Bb---------------------------------------------|
Gb--9--9--9-9-x-x-10--10/-17--17-17--17-17-17--|
Db---------------------------------------------|
Ab--7--7--7-7-x-x-8---8/--15--15-15--15-15-15--|
Eb---------------------------------------------|

Then play 2nd part of Intro Riff x 8
Then play Verse Riff A x 2
Then play Verse Riff B x 2

Bridge Riff
Eb----------------------------------|
Bb----------------------------------|
Gb--9-9--9-9-9--10-10-10--12-12-12--|
Db--9-9--9-9-9--10-10-10--12-12-12--|
Ab--7-7--7-7-7--8--8--8---10-10-10--|
Eb----------------------------------| Play x 4

Then play Main Riff x 8
End on (sliding all the way up the neck):
Db--7~-/--|
Ab--7~-/--|
Eb--5~-/--|



Share "4 People Do Good" by Idlewild


TOP 10 TABS

FRESH NEW TABS

ALL ARTISTS
artist wiki

mp3bear.com
song lyrics / contact us / privacy policy / tabspace toolbar
Copyright 2004 - 2014 TabSpace.com - All Rights Reserved.
song: 4 people do good guitar tabs by idlewild

0.013