:: Guitar & Bass Tabs Make Home Page
A B C D E F G H I J K L M N O P Q R S T U V W X Y Z #

  for    

On TABSPACE
Info About This Tab
Artist: 30 Seconds To Mars
Tab Type: Guitar
Rate This Tab!





30 Seconds to Mars                                      30 Seconds to Mars  

This Is war                                                    This Is war

2010                                                                  2010


                             "A Call To Arms"



intro:

synth (delay)
E:-----------------------------------------------------------------|
B:------10--------10--------10---------10--------------------------|
G:-7-7-7-----7-7-7-----7-7-7-----7-7-7-----------------------------|
D:-----------------------------------------------------------------|
A:-----------------------------------------------------------------|
E:-----------------------------------------------------------------|

dist/delay  guitar
E:-----------------------------------------------------------------|
B:-------------------------------------10p8-8-8-8------------------|
G:-7-7-7-7-7-7-7-7-7-7-7-7-7-7-7-7-7-7-----------------------------|
D:-----------------------------------------------------------------|
A:-----------------------------------------------------------------|
E:-----------------------------------------------------------------|


This is a call to arms, gather soldiers
Time to go to war
This is a battle song, brothers and sisters
D5            G5  A5  F#5
Time to go to war

(D5)
...

1st VERSE:       Strumming:DDDD DUDUD      (Everthing twice)
    D5          G5          D5          A5     
E:------------------------------------------------------|(Actually this
B:------------------------------------------------------|is played by bass)
G:--7777-77777--------------7777-77777------------------|
D:--7777-77777--5555-55555--7777-77777--7777-77777------|
A:--5555-55555--5555-55555--5555-55555--7777-77777------|
E:--------------3333-33333--------------5555-55555------|

(This is played during the verses)
E:------------------------------------------------------------10(x13)-9-9-9--|
B:-10(x16)-8(x8)-7(x8)---10--10-10--10-10-10---8--8-8--8-8-8-----------------|
G:---------------------------------------------------------------------------|
D:---------------------------------------------------------------------------| X2
A:---------------------------------------------------------------------------|
E:---------------------------------------------------------------------------|
             D5
Did you ever believe?
                D5
Were you ever a dreamer?
      G5                    G5
Ever imagine heart open and free?

E:------------------------------------------------------------------10(x26)-9(x6)-|
B:-10--10-10--10-10-10--8--8-8--8-8-8--7--7-7--7-7-7--7--7-7--7-7-7---------------|
G:--------------------------------------------------------------------------------|
D:--------------------------------------------------------------------------------|
A:--------------------------------------------------------------------------------|
E:--------------------------------------------------------------------------------|
             D5
Did you ever deny?
                D5
Were you ever a traitor?
        A5                       A5 
Ever in love with your bloodless business?


1st CHORUS:

D5
This is a call to arms, gather soldiers
              G5  A5  F#5
Time to go to war
D5
This is a battle song, brothers and sisters
              G5  A5  F#5  D5
Time to go to war

2nd VERSE:

Ever want to be free?
Do you even remember?
Want to be god and devil like me?
Ever want to just stop?
Do you want to surrender?
Or fight for victory?

Then this:

   Gsus                 Bm                 D              A
E:--------------------------------------------------------------|
B:---10-------------------8------------------7--------------5---|
G:--------------------------------------------------------------|
D:--------------------------------------------------------------|
A:-10--------------------------------------5--------------------|
E:----------------------7---------------------------------5-----|
  Here we are at the start, I can feel the beating of our hearts
   Gsus                 Bm     
E:----------------------------|
B:---10-------------------8---|
G:----------------------------|
D:----------------------------|
A:-10-------------------------|
E:----------------------7-----|
  Here we are at the start...



synth comes again
D5...


        
E:---------5s3-------------------s10----------------5s3-------------s10----------|
B:-------------------------------------------------------------------------------|
G:-7-7-7---------------7-7-7-----------------7-7-7----------7-7-7----------------|
D:-7-7-7---------------7-7-7-----------------7-7-7----------7-7-7----------------|
A:-5-5-5---------------5-5-5-----------------5-5-5----------5-5-5----------------|
E:-------------------------------------------------------------------------------|
   Darkness falls, but here comes the rain to wash away those passed and the names


E:---------5s3----------------s10------------------5s3-------------s10-----------|
B:-------------------------------------------------------------------------------|
G:-7-7-7-----------7-7-7-------------------7-7-7----------7-7-7------------0-----|
D:-7-7-7-----------7-7-7-------------------7-7-7----------7-7-7--------------4---|
A:-5-5-5-----------5-5-5-------------------5-5-5----------5-5-5----------------5-|
E:-------------------------------------------------------------------------------|
   Darkness falls, here comes the rain to end it all, the blood and the game


                                                        *
D5           *     G5                        *       G:--0---|
Far, far away in a land that time can't change       D:---4--|
D5            *     A5                       *       A:----5-|
Long, long ago in a place of hearts and ghosts
D5           *     G5                        *
Far, far away in a land that time can't change
D5            *     A        Asus4       A?           A? x022x0          
Long, long ago in a place of hearts and gold      B:--2--3--5--7-|

E:-----------------------------------------------------------------|
B:--8----7---------8----7--------8-7---8-7---8-7---10--------------|
G:------------7--------------7-------7-----7-----7-----------------|
D:-----------------------------------------------------------------|
A:-----------------------------------------------------------------|
E:-----------------------------------------------------------------|
  ... of   hearts   and   gold 

FINAL CHORUS:


E:-----------------------------------------------------------------|
B:-------10---------10---------10--------10p8-8-8------------------|
G:-7-7-7------7-7-7------7-7-7------7-7-7--------------------------|x3
D:-----------------------------------------------------------------|
A:-----------------------------------------------------------------|
E:-----------------------------------------------------------------|

E:-----------------------10-10-10-10-10-10..-----------------------|
B:-------10---------10---10-10-10-10-10-10..-----------------------|
G:-7-7-7------7-7-7------7--7--7--7--7--7...-----------------------|
D:-----------------------------------------------------------------|
A:-----------------------------------------------------------------|
E:-----------------------------------------------------------------|

E:-1010101010101010-1010101010101010-1010101010101010-1010101010101010-|
B:-7-7-7-7-7-7-7-7--8-8-8-8-8-8-8-8--7-7-7-7-7-7-7-7--1010101010101010-|
G:-7-7-7-7-7-7-7-7--7-7-7-7-7-7-7-7--7-7-7-7-7-7-7-7--7-7-7-7-7-7-7-7--|x3
D:---------------------------------------------------------------------|
A:---------------------------------------------------------------------|
E:---------------------------------------------------------------------|

E:-1010101010101010-1010101010101010-1010101010101010-1010101010101010-|
B:-7-7-7-7-7-7-7-7--8-8-8-8-8-8-8-8--1010101010101010-1010101010101010-|
G:-7-7-7-7-7-7-7-7--7-7-7-7-7-7-7-7--7-7-7-7-7-7-7-7--7-7-7-7-7-7-7-7--|
D:---------------------------------------------------------------------|
A:---------------------------------------------------------------------|
E:---------------------------------------------------------------------|

 then some crazy synth...


D5
This is a call to arms, gather soliders
Time to go to war (Far, far away...)

Bm                              C#5   D5
This is a battle song, brothers and sisters
A5
Time to go to war (Long, long ago...)

D5                             G5  F#5  (G5 and F#5 - 10th and 9th fret)
This is a call to arms, gather soliders
G5                G5 F#5
Time to go to war (Far, far away...)

Bm                              C#5   D5
This is a battle song, brothers and sisters
A       Asus     A?
Time to go to war

D                G5  F#5    G            G5 F#5    
This is a call to arms,    way of the night
Bm               G5  F#5   A           A  (12th fret)
This is a battle song,    way of the night


Synth in the end...
E:----------------------------------------------------------------------------------|
B:------10--------10--------10---------10---------8---------8---------8---------8---|
G:-7-7-7-----7-7-7-----7-7-7-----7-7-7------7-7-7-----7-7-7-----7-7-7-----7-7-7-----|
D:----------------------------------------------------------------------------------|
A:----------------------------------------------------------------------------------|
E:----------------------------------------------------------------------------------|




Share "A Call To Arms" by 30 Seconds To Mars


TOP 10 TABS

FRESH NEW TABS

ALL ARTISTS
artist wiki

mp3bear.com
song lyrics / contact us / privacy policy / tabspace toolbar
Copyright 2004 - 2014 TabSpace.com - All Rights Reserved.
song: a call to arms guitar tabs by 30 seconds to mars

0.022