:: Guitar & Bass Tabs Make Home Page
A B C D E F G H I J K L M N O P Q R S T U V W X Y Z #

  for    

On TABSPACE
Info About This Tab
Artist: Aastha
Tab Type: Guitar
Rate This Tab!
Naren Limbu- Antim Maya(Acoustic)
Standard tuning- EADGBE

This is the acoustic version of the song antim maya. I could not find
any guitar tab of this song. So I just thought of making one. Well
this song has two acoustic guitars. Guitarist one is doing the plucking
and guitarist 2 is doing the rhythm. For the plucking part, there will be
no spectrum used, so you gotta practise on the plucking mostly.
Alright here's the tab going in sequence with the song..


INTRO: Guitarist 1(plucking)

E----3---3-------------------------------------------------|
A----2-------2-------------------3----3--------------------|
D----0------------0-------------------2---2---0------------|
G----0---0-----------------2-----0----------------------2--|   Play once
B----3------------3-----3---------------------3------3-----|
e----3-------3-------0--------------------3-------0--------|

Verse 1: Guitarist 1(plucking)

E---3---3---------------------3---3-----------------------------------------|
A------------------------------------------------------3----3---------------|
D-------0------------0------------0-------------0-----------2-----------2---|
G---0-------------0-----------0--------------0---------0-------------0------|
B--------------3-------------------------3------------------------3---------|
e-----------3-------------------------3------------------------3------------|

E---------------------------------------------------------|
A---------------------------------------------------------|
D---------------------------------------------------------|
G----2---2------------------------------------------------|    Play twice
B---------------------------------------------------------|
e----2---3---5--7--5h7p5----------------------------------|


CHORUS: Guitarist 1(plucking)

E-----------------------------------------------------------------|
A-----------------------------------------------------------------|
D---2------------0--------------0---0---0---0-----0---0---0---0---|  Play
G------0------------2---------------------------------------------|  twice
B---------3--3---------3--3---------------------------------------|
e------------3------------3----3---3---10--7------2---2---10---5--|

Guitarist 2(rhythm)
       Caad9       Dsus4         G    Dsus4     Caad9        Dsus4
E-------------------------------3--3------------------------------------|
A---3--3--3--3------------------2--2----------3--3--3--3----------------|
D---2--2--2--2------------------0--0----------2--2--2--2----------------|
G---0--0--0--0----2--2--2--2----0--0--2--2----0--0--0--0----2--2--2--2--|
B---3--3--3--3----3--3--3--3----3--3--3--3----3--3--3--3----3--3--3--3--|
e---3--3--3--3----3--3--3--3----3--3--3--3----3--3--3--3----3--3--3--3--|

       G              D       Caad9     Dsus4
E----3--3--3--3-------------------------------|
A----2--2--2--2-----------------3-------------|
D----0--0--0--0-----------------2-------------|
G----0--0--0--0-------2---------0---------2---|
B----3--3--3--3-------3---------3---------3---|
e----3--3--3--3-------2---------3---------3---|

Make sure you strum the chords with proper rhythm with the song
and know when to change the chords. Only then will it sound perfect
and similar to the song. The rhythm in the tab does not mean that you
strum the chord only four times. Listen to the song and you will get the
strumming part, it's really simple, trust me.


INTRO: Play once.

VERSE 2: same as verse 1, play 4 times

CHORUS: Same as before. After the chorus. When Naren starts singing
Aaaaahh aaaahh ahhh…play this:

 Guitarist 1(plucking)
E-------------------------------|
A-------------------------------|
D----0---0----0-----------------|  Play 4 times
G-------------------0-----------|
B-------------------------------|
e----7---5----3-----3-----------|

Guitarist 2(rhythm)
     Caad9            Dsus4               Em7             Dsus4
E------------------------------------------------------------------|
A---3--3--3--3-------------------------2--2--2--2------------------|
D---2--2--2--2-------------------------2--2--2--2------------------|  Play
G---0--0--0--0------2--2--2--2---------0--0--0--0------2--2--2--2--| twice
B---3--3--3--3------3--3--3--3---------3--3--3--3------3--3--3--3--|
e---3--3--3--3------3--3--3--3---------3--3--3--3------3--3--3--3--|


BRIDGE: Guitarist 1(plucking)

E---------------------------------------|
A---------------------------------------|
D---2---------------0-------------------|  Play 6 times.
G------0----------------2---------------|
B----------3---3------------3---3-------|
e--------------3----------------3-------|


Guitarist 2(rhythm)
      G            Dsus4           Em7           Dadd11
E--3--3--3--3----------------------------------2--2--2--2-----|
A--2--2--2--2-------------------2--2--2--2-----0--0--0--0-----|
D--0--0--0--0-------------------2--2--2--2-----0--0--0--0-----|
G--0--0--0--0-----2--2--2--2----0--0--0--0-----2--2--2--2-----|
B--3--3--3--3-----3--3--3--3----3--3--3--3-----3--3--3--3-----|
e--3--3--3--3-----3--3--3--3----3--3--3--3-----3--3--3--3-----|


       G               Dsus4        Cadd9
E---3--3--3--3------------------------------|
A---2--2--2--2-----------------------3------|
D---0--0--0--0-----------------------2------|
G---0--0--0--0------2--2--2--2-------0------|
B---3--3--3--3------3--3--3--3-------3------|
e---3--3--3--3------3--3--3--3-------3------|

INTRO: same as before.

End with this:

E-------------|
A-------------|
D-------------|
G-----12------|
B-----12------|
e-------------|


That was the song. It's not that hard, and it's a great song too.
If you wanna practice on plucking then check out a song by
Creed called lullaby, great song and easy plucking.
Cheers guyz.


Share "Antim Maya Acoustic" by Aastha


TOP 10 TABS

FRESH NEW TABS

ALL ARTISTS
artist wiki

mp3bear.com
song lyrics / contact us / privacy policy / tabspace toolbar
Copyright © 2004 - 2014 TabSpace.com - All Rights Reserved.
song: antim maya acoustic guitar tabs by aastha

0.023