:: Guitar & Bass Tabs Make Home Page
A B C D E F G H I J K L M N O P Q R S T U V W X Y Z #

  for    

On TABSPACE
Info About This Tab
Artist: Damon Dotson
Tab Type: Guitar
Difficulty: novice
Rate This Tab!
DAMON DOTSON - ATMOSPHERE

www.damondotson.com

tabbed by: Airdog625

Damon is a great artist from Iowa. He is very good live, I strongly recommend seeing him 
the opportunity comes your way. - AZ

Standard Tuning

Part 1:
E|--0----0----0----0----0--|--0----0----0----0----0--|
B|--0----5----2----0----4--|--0----5----2----0----4--|
G|--1----6----2----1----4--|--1----6----2----1----4--|
D|--2----6----2----2----4--|--2----6----2----2----4--|
A|--2----4----0----2----2--|--2----4----0----4----2--|
E|--0--------------0-------|--0--------------0-------|
  (She said it was cold...)
  (Look out beyond the horizon...)

Part 2:
E|--0---------0--------|--0---------0--------|
B|--5---------0--------|--5---------0--------|
G|--6---------1--------|--6---------1--------|
D|--6---------2--------|--6---------2--------|
A|--4---------2--------|--4---------2--------|
E|------------0--------|------------0--------|
  (But now she's going away...)

Part 3:                             *<-- just once
E|--0---------0--------|--0---------0--------|
B|--2---------4--------|--2---------4--------|
G|--2---------4--------|--2---------4--------|
D|--2---------4--------|--2---------4--------|
A|--0---------2--------|--0---------2--------|
E|---------------------|---------------------|
  (Now I'll never get the...)       *~into the atmosphere

______________________________________________________
******************************************************
>>          CHORDS REPEAT AS IN PARTS 1-3           <<
______________________________________________________
******************************************************

then:
                        *                         *
E|--0---0---0---0---0---0--|--0----0----0----0----0--|
B|--0---2---5---4---2---4--|--0----2----4----0----4--|
G|--1---2---6---4---2---4--|--1----2----4----1----4--|
D|--2---2---6---4---2---4--|--2----2----4----2----4--|
A|--2---0---4---2---0---2--|--2----0----2----2----2--|
E|--0----------------------|--0--------------0-------|
  (NO I WILL NOT FORGET...)

That's pretty much the whole song...the chords are basic, so you could interchange 
the open A or barred A if you'd like, it'll all sound the same. Please take a second to rate 
tab, if you have any corrections, please email them to airdog625@yahoo.com. Thanks!


Share "Atmosphere" by Damon Dotson


TOP 10 TABS

FRESH NEW TABS

ALL ARTISTS
artist wiki

mp3bear.com
song lyrics / contact us / privacy policy / tabspace toolbar
Copyright 2004 - 2014 TabSpace.com - All Rights Reserved.
song: atmosphere guitar tabs by damon dotson

0.006