:: Guitar & Bass Tabs Make Home Page
A B C D E F G H I J K L M N O P Q R S T U V W X Y Z #

  for    

On TABSPACE
Info About This Tab
Artist: Misc Television
Tab Type: Guitar
Rate This Tab!
BBC Snooker Theme Song.
 Tabbed by Bill Runham Runabeans@hotmail.com.
  
Tabbed By Bill Runham runabeans@hotmail.com

This is the BBC snooker theme song.
A cool tune thats good to impress, at the same time easy!

Best played on a Les Paul with slight fuzz distortion add a little reverb, switch to Treble humbucker pickup and turn tone knobs half way down.

I dont know the exact timing but just play it as fast as you want.

This isnt a 100% accurate Tab but as close as I could get.



|-------------------------------------------------------|
|-------------------------------------------------------|
|----------------------7(s)5--x-x------ 7-x-------------|
|-5s7--x-x--7-7--x--7-7(s)5--x-x---5-x-7-x-7-x-x--7----|
|-5s7--x-x--7-7--x--7-5(s)3--x-x---5-x-5x-7-x-x--7----|
|-3s5--x-x--5-5--x--5---------------3-x-----5-x-x--5----|

|-------------------------------------------------------|
|-------------------------------------------------------|
|----------------------7(s)5--x-x------ 7-x-------------|
|-5s7--x-x--7-7--x--7-7(s)5--x-x---5-x-7-x-7-x-x--7----|
|-5s7--x-x--7-7--x--7-5(s)3--x-x---5-x-5x-7-x-x--7----|
|-3s5--x-x--5-5--x--5---------------3-x-----5-x-x--5----|


|---------------------------------------------------------------------|
|---------------------------------------------------------------------|
|----------------------3-------------2h4-4b5-4p2-----7----------------|
|-2-2-2-2-1p0--------3-3-2--------2h4-----------4--5-7-7-x-x-7--------|
|------------3-2p0---3-1-2---0-2h3-----------------5-5-7-x-x-7--------|      
|-----------------3--1---0-------------------------3---5-x-x-5--------|

The next part can be played in a number of ways, Ill show 2 ways and you can decide which you prefer.

1)

|---------------------------------------------------------------------|
|-----10------10-----10-----10-----10-----10-----10-----10------10-10-|
|-9-11----9-11---9-11---9-11---9-11---9-11---9-11---9-11---9-11-------|
|---------------------------------------------------------------------|
|---------------------------------------------------------------------|
|---------------------------------------------------------------------|

|---------------------------------------------------------------------|
|-12-12b13b12-10--------10-10-10~--12-10-12b13-12b13-12-10-------10---|
|---------------11-9-11-----------------------------------11-9-11-----|
|---------------------------------------------------------------------|
|---------------------------------------------------------------------|
|---------------------------------------------------------------------|





|---------------------------------------------------------------------|
|-12p10////////-------------------------------------------------------|
|---------------------------------------------------------------------|
|---------------------------------------------------------------------|
|---------------------------------------------------------------------|
|---------------------------------------------------------------------|

ALT 2)

|-0-2-5-0-2-5-0-2-5-0-2-5-0-2-5-0-2-5-0-2-5-0-2-5-5--7-7b8b7-5------5-|
|-------------------------------------------------------------7-5-7---|
|---------------------------------------------------------------------|
|---------------------------------------------------------------------|
|---------------------------------------------------------------------|
|---------------------------------------------------------------------|

|-5-5--7-5-7-7b8-7-5------5-5-5//////---------------------------------|
|-------------------7-5-7---------------------------------------------|
|---------------------------------------------------------------------|
|---------------------------------------------------------------------|
|---------------------------------------------------------------------|
|---------------------------------------------------------------------|

Then back to this

|---------------------------------------------------------------------|
|---------------------------------------------------------------------|
|----------------------3-------------2h4-4b5-4p2-----7----------------|
|-2-2-2-2-1p0--------3-3-2--------2h4-----------4--5-7-7-x-x-7--------|
|------------3-2p0---3-1-2---0-2h3-----------------5-5-7-x-x-7--------|      
|-----------------3--1---0-------------------------3---5-x-x-5--------|

|---------------------------------------------------------------------|
|---------------------------------------------------------------------|
|---------------------------------------------------------------------|
|-2-2-2---------------------------------------------------------------|
|-2-2-2---------------------------------------------------------------|
|-0-0-0 Keep this part going for as long as you wish before you come to the end

|-------------------------------------------------------|
|-------------------------------------------------------|
|----------------------7(s)5--x-x------ 7-x-------------|
|-5s7--x-x--7-7--x--7-7(s)5--x-x---5-x-7-x-7-x-x--7----|
|-5s7--x-x--7-7--x--7-5(s)3--x-x---5-x-5x-7-x-x--7----|
|-3s5--x-x--5-5--x--5---------------3-x-----5-x-x--5----|

|-------------------------------------------------------|
|-------------------------------------------------------|
|----------------------7(s)5--x-x------ 7-x-------------|
|-5s7--x-x--7-7--x--7-7(s)5--x-x---5-x-7-x-7-x-x--7----|
|-5s7--x-x--7-7--x--7-5(s)3--x-x---5-x-5x-7-x-x--7----|
|-3s5--x-x--5-5--x--5---------------3-x-----5-x-x--5----|




|---------------------------------------------------------------------|
|---------------------------------------------------------------------|
|----------------------3-------------2h4-4b5-4p2-----7----------------|
|-2-2-2-2-1p0--------3-3-2--------2h4-----------4--5-7-7-x-x-7--------|
|------------3-2p0---3-1-2---0-2h3-----------------5-5-7-x-x-7--------|      
|-----------------3--1---0-------------------------3---5-x-x-5--------|

|---------------------------------------------------------------------|
|---------------------------------------------------------------------|
|---------------------------------------------------------------------|
|-2-2-2---------------------------------------------------------------|
|-2-2-2---------------------------------------------------------------|
|-0-0-0 Keep this part going for as long as you wish before you come to the end

|---------------------------------------------------------------------|
|---------------------------------------------------------------------|
|-------7-7-7---------------------------------------------------------|
|-7-x-x-7-7-7-7-------------------------------------------------------|
|-7-x-x-5-5-5-7-------------------------------------------------------|
|-5-x-x-------5-------------------------------------------------------|


Send your improvements, comments, and cusses to Bill Runham, thank you! Runabeans@hotmail.com

 
:: Ultimate Guitar Archive :: 
http://www.ultimate-guitar.com 






Share "Bbc Snooker Theme" by Misc Television


TOP 10 TABS

FRESH NEW TABS

ALL ARTISTS
artist wiki

mp3bear.com
song lyrics / contact us / privacy policy / tabspace toolbar
Copyright 2004 - 2014 TabSpace.com - All Rights Reserved.
song: bbc snooker theme guitar tabs by misc television

0.02