:: Guitar & Bass Tabs Make Home Page
A B C D E F G H I J K L M N O P Q R S T U V W X Y Z #

  for    

On TABSPACE
Info About This Tab
Artist: Tokio Hotel
Tab Type: Guitar
Rate This Tab!
INTRO:       VERSE:

|----------| ---------------| -----|---------------|----------|----------|
|----------| ---------------| -----|---------------|----------|----------|
|----------| ---------------| -----|---------------|----------|----------|
|-5-6--5-6-| -5-6--5-6--5-6-| -5-6-|-5-5-5-6--5-6-|-5-5--8-6-|-5-6--8-6-|
|-6-6--6-6-| -6-6--6-6--5-6-| -6-6-|-6-6-6-6--3-6-|-6-6--6-4-|-6-6--6-4-|
|-6-6--6-6-| -6-6--6-6--3-4-| -6-6-|-6-6--6-6--3-4-|-6-6--6-4-|-6-6--6-4-|

CHORUS:                                   PRE VERSE:

|----------------| -----| ----------------|-----|
|----------------| -----| ----------------|-----|
|----------------| -----| ----------------|-----|
|-5-6--5-6--10-6-| -5-6-| -5-6--5-6--10-6-|-5-6-|
|-6-6--6-6--10-6-| -6-6-| -6-6--6-6--10-4-|-6-6-|
|-6-6--6-6--8--4-| -6-6-| -6-6--6-6--8--4-|-6-6-|


VERSE:

|---------------| -----|---------------|----------|----------|
|---------------| -----|---------------|----------|----------|
|---------------| -----|---------------|----------|----------|
|-5-6--5-6--5-6-| -5-6-|-5-5-5-6--5-6-|-5-5--8-6-|-5-6--8-6-|
|-6-6--6-6--5-6-| -6-6-|-6-6-6-6--3-6-|-6-6--6-4-|-6-6--6-4-|
|-6-6--6-6--3-4-| -6-6-|-6-6--6-6--3-4-|-6-6--6-4-|-6-6--6-4-|


PRE CHORUS:  CHORUS:                                   

|----------| ----------------| -----| ----------------|-----|
|----------| ----------------| -----| ----------------|-----|
|----------| ----------------| -----| ----------------|-----|
|-5-6--5-6-| -5-6--5-6--10-6-| -5-6-| -5-6--5-6--10-6-|-5-6-|
|-6-6--6-6-| -6-6--6-6--10-6-| -6-6-| -6-6--6-6--10-4-|-6-6-|
|-6-6-6-6-| -6-6--6-6--8--4-| -6-6-| -6-6--6-6--8--4-|-6-6-|


INTERLUDE:

|-------------|-------------| ----------| ----------|
|-------------|-------------| ----------| ----------|
|-------------|-------------| ----------| ----------|
|-6--10--8--6-|-6--10--8--6-| -8-6-8-6-| -5-6--5-6-|
|-6--10--8--6-|-6--10--8--6-| -8-6--8-6-| -6-6--6-6-|
|-4--8---6--4-|-4--8---6--4-| -6-4--6-4-| -6-6--6-6-|


CHORUS:                            END:

|-------------|    ------|------|  ----------|---|
|-------------|    ------|------|  ----------|---|
|-------------|    ------|------|  ----------|---|
|-6--10--8--6-|    -8--6-|-8--6-|  -5-6--5-6-|-5-|
|-6--10--8--6-|    -8--6-|-8--6-|  -6-6--6-6-|-6-|
|-4--8---6--4-| x4 -6--4-|-6--4-|  -6-6--6-6-|-6-|

Tab by >BaD.TiGeR<


Share "By Your Side" by Tokio Hotel


TOP 10 TABS

FRESH NEW TABS

ALL ARTISTS
artist wiki

mp3bear.com
song lyrics / contact us / privacy policy / tabspace toolbar
Copyright 2004 - 2014 TabSpace.com - All Rights Reserved.
song: by your side guitar tabs by tokio hotel

0.009