:: Guitar & Bass Tabs Make Home Page
A B C D E F G H I J K L M N O P Q R S T U V W X Y Z #

  for    

On TABSPACE
Info About This Tab
Artist: Paramita
Tab Type: Guitar
Rate This Tab!
Carousel by Paramita

Intro:
  Guitar:
  e|--3--3--3--3--|--3--3--p-|
  B|--1--1--1--1--|--1--1--a-|
  G|--2--0--2--2--|--2--0--u-|
  D|--3--0--2--2--|--3--0--s-|
  A|-----2--0--0--|-----2--e-|
  E|-----3--------|-----3----|

  Bass:
  G|-----------------------------------|
  D|--7-5----5----5--------------------|
  A|-------7----7----7--5--3--5--3-----|
  E|--------------------------------5--|

  G|------------------------------|
  D|------3------5------7------7--|
  A|------------------------------|
  E|--111-1--333-3--555-5--555-5--|

  Lead:
  e|----------------------------|
  B|----------------------------|
  G|----------------------------|2x
  D|--7~--5~--2~---7~--9~-5~-7~-|
  A|----------------------------|
  E|----------------------------|


Verse:
  Lead: (palm-mute)
  e|------------------------------|-------------------------------|
  B|---------------888----888-88--|-------------------------------|
  G|-555-55-777-55-----55---------|-555-55--777-77----------------|
  D|------------------------------|---------------777-77--777-77--|
  A|------------------------------|-------------------------------|
  E|------------------------------|-------------------------------|

  e|------------------------------|-----------------------------|
  B|---------------888----888-88--|-------------------------8~--|
  G|-555-55--777-55-----55--------|-555-55--777-77-----5~-7~----|
  D|------------------------------|----------------7~-----------|
  A|------------------------------|-----------------------------|
  E|------------------------------|-----------------------------|


Chorus 1:
  Lead:
  e|-8-7-----7-8-10-8-7-8/12-12/13\12--7-|
  B|-----8~------------------------------|
  G|-------------------------------------|
  D|-------------------------------------|
  A|-------------------------------------|
  E|-------------------------------------|

  e|-8-7------------------------|
  B|-----8~--6-5-6-8-6-5-6-8----|
  G|-------------------------5~-|
  D|----------------------------|
  A|----------------------------|
  E|----------------------------|

  e|-8-7-----7-8-10-8-7-8/12-12/13\12-(13)-15~-15~--15~--15~--15~--15~--15~|
  B|-----8~---------------------------------------14--------14-------------|
  G|-----------------------------------------------------------------------|
  D|-----------------------------------------------------------------------|
  A|-----------------------------------------------------------------------|
  E|-----------------------------------------------------------------------|


Solo:
e|-------------------------------------------------------------|
B|--10~--12-13-12-5-5/10-10~--8-8-6-6-6-5-5-5-3-3-3-5-6-5/8-8~-|
G|-------------------------------------------------------------|
D|-------------------------------------------------------------|
A|-------------------------------------------------------------|
E|-------------------------------------------------------------|

e|----------------------------------------------------------|
B|--10~--12-13-12-5-5/10-10~--8-8-6-6-6-5-5-5-3-3-3-5-6-5~--|
G|----------------------------------------------------------|
D|----------------------------------------------------------|
A|----------------------------------------------------------|
E|----------------------------------------------------------|


Chorus 2:
  Lead:
  e|--------------15--------------|----------15-13-12-13-12~-|
  B|-12--13-12-13----13-12-13-----|-13-12-13-----------------|
  G|--------------------------12~-|--------------------------|
  D|------------------------------|--------------------------|
  A|------------------------------|--------------------------|
  E|------------------------------|--------------------------|

  e|--------------15--------------|--------------------------|
  B|-12--13-12-13----13-12-13-----|------------10~-----------|
  G|--------------------------12~-|-10-9-10-12-------12~-----|
  D|------------------------------|--------------------------|
  A|------------------------------|--------------------------|
  E|------------------------------|--------------------------|

  e|--------------15--------------|----------15-13-12-13-12~-|
  B|-12--13-12-13----13-12-13-----|-13-12-13-----------------|
  G|--------------------------12~-|--------------------------|
  D|------------------------------|--------------------------|
  A|------------------------------|--------------------------|
  E|------------------------------|--------------------------|

  e|--------------15--------------|----------10-12-13-13/15~-|
  B|-12--13-12-13----13-12-13-----|-10-12-13-----------------|
  G|--------------------------12~-|--------------------------|
  D|------------------------------|--------------------------|
  A|------------------------------|--------------------------|
  E|------------------------------|--------------------------|


Outro:
  Lead: (paulit-ulit lang)
  e|-----3-----3--|
  B|--5-----5-----|
  G|-5--5--5--5---|
  D|--------------|
  A|--------------|
  E|--------------|



Share "Carousel" by Paramita


TOP 10 TABS

FRESH NEW TABS

ALL ARTISTS
artist wiki

mp3bear.com
song lyrics / contact us / privacy policy / tabspace toolbar
Copyright 2004 - 2014 TabSpace.com - All Rights Reserved.
song: carousel guitar tabs by paramita

0.002