:: Guitar & Bass Tabs Make Home Page
A B C D E F G H I J K L M N O P Q R S T U V W X Y Z #

  for    

On TABSPACE
Info About This Tab
Artist: Wasp
Tab Type: Bass
Difficulty: intermediate
Rate This Tab!
Artist:W.A.S.P.
Song:Chainsaw Charlie (Murders in the New Morgue)
Album:The Crimson Idol
Bassist:Johnny Rod
Tabber:Dev Fuld

I received a request for this song, and what an excellent song it is off an 
excellent W.A.S.P. album. This tab is correct, but the Intro part 1 is longer 
than I put it for.

Key:
* = let it ring

Intro part 1 (play fast with guitar and drums)
G:----------------------------------------------|
D:----------------------------------------------|
A:8888888888888888888888888888888888888888888888|
E:----------------------------------------------|

Intro part 2
G:--------------------------|
D:--------------------------|
A:8*-8*-8*-8*--8*-8*-8*-8*--|
E:--------------------------|

Verse
G:---------------------------------------------------------------|
D:---------------------------------------------------------------|
A:--------------------------------4-4-4-4-4-4-4-4-6-6-6-6-6-6-6-6|
E:6-6-6-6-6-6-6-6-4-4-4-4-4-4-4-4--------------------------------|

G:---------------------------------------------------------------|
D:---------------------------------------------------------------|
A:--------------------------------4-4-4-4-4-4-4-4-6-6-6-6-6-6-6-6|
E:6-6-6-6-6-6-6-6-4-4-4-4-4-4-4-4--------------------------------|

Pre-Chorus
G:-------------------------------------------------------------------------------|
D:-------------------------------------------------------------------------------|
A:8-8-8-8-8-8-8-8-4-4-4-4-4-4-4-4-----------------6-6-6-6-6-6-6-6-8-8-8-8-8-8-8-8|
E:--------------------------------4-4-4-4-4-4-4-4--------------------------------|

G:-----------------------------------------------|
D:-----------------------------------------------|
A:4-4-4-4-4-4-4-4-----------------8-8-8-8-8-8-8-8|
E:----------------6-6-6-6-6-6-6-6----------------|

G:-------------------------------------------------------------------------------|
D:-------------------------------------------------------------------------------|
A:8-8-8-8-8-8-8-8-4-4-4-4-4-4-4-4-----------------6-6-6-6-6-6-6-6-8-8-8-8-8-8-8-8|
E:--------------------------------4-4-4-4-4-4-4-4--------------------------------|

G:-----------------------------------------------|
D:-----------------------------------------------|
A:4-4-4-4-4-4-4-4--------------------------------|
E:----------------6-6-6-6-6-6-6-6-6-6-6-6-6-6-6-6|

Chorus
G:---------------------------------------------------------------|
D:---------------------------------------------------------------|
A:8-8-8-8-8-8-8-8-8-8-8-8-8-8-8-8-4-4-4-4-4-4-4-4-4-4-4-4-4-4-4-4|
E:---------------------------------------------------------------|

G:---------------------------------------------------------------|
D:---------------------------------------------------------------|
A:----------------6-6-6-6-6-6-6-6-8-8-8-8-8-8-8-8-8-8-8-8-8-8-8-8|
E:6-6-6-6-6-6-6-6------------------------------------------------|

G:---------------------------------------------------------------|
D:---------------------------------------------------------------|
A:8-8-8-8-8-8-8-8-8-8-8-8-8-8-8-8-4-4-4-4-4-4-4-4-4-4-4-4-4-4-4-4|
E:---------------------------------------------------------------|

G:---------------------------------------------------------------|
D:---------------------------------------------------------------|
A:----------------6-6-6-6-6-6-6-6-8-8-8-8-8-8-8-8-8-8-8-8-8-8-8-8|
E:6-6-6-6-6-6-6-6------------------------------------------------|

Verse

Pre-Chorus

Chorus

Bridge
G:------------|------------|------------|------------|
D:------------|------------|------------|------------|
A:------------|------------|------------|------------|
E:8-8*-888-9-6|8-8*-888-9-6|8-8*-888-9-6|8-8*-888-9-6|

Solo
G:---------------------------------------------------------------|
D:---------------------------------------------------------------|
A:8-8-8-8-8-8-8-8-6-6-6-6-6-6-6-6-4-4-4-4-4-4-4-4----------------|
E:------------------------------------------------6-6-6-6-6-6-6-6|

G:---------------------------------------------------------------|
D:---------------------------------------------------------------|
A:8-8-8-8-8-8-8-8-6-6-6-6-6-6-6-6-4-4-4-4-4-4-4-4----------------|
E:------------------------------------------------6-6-6-6-6-6-6-6|

Bridge

After Solo/After Bridge
G:-----------|
D:-----------|
A:8*-6*-4*-3*|
E:-----------|

Next part
G:---------------------|-------------------|-------------------|
D:---------------------|-------------------|-------------------|
A:8*--6*--4*-6*--4-6-8*|8*--6*--4*----6*-8*|8*--6*--4*----6*-8*|
E:---------------------|-----------6*------|-----------6*------|

Verse (2)
G:---------------------------------------------------------|
D:---------------------------------------------------------|
A:888888888888888888888888888888-6666666666666666-888888888|
E:---------------------------------------------------------|

G:---------------------------------------------------------|
D:---------------------------------------------------------|
A:888888888888888888888888888888-6666666666666666-888888888|
E:---------------------------------------------------------|

G:-------------------|-------------------|
D:-------------------|-------------------|
A:8*--6*--4*----6*-8*|8*--6*--4*----6*-8*|
E:-----------6*------|-----------6*------|

G:---------------------------------------------------------|
D:---------------------------------------------------------|
A:888888888888888888888888888888-6666666666666666-888888888|
E:---------------------------------------------------------|

G:---------------------------------------------------------|
D:---------------------------------------------------------|
A:888888888888888888888888888888-6666666666666666-888888888|
E:---------------------------------------------------------|

Before second solo
G:---------------------------------------------------------|
D:---------------------------------------------------------|
A:---------------------------------------------------------|
E:888888888888888888888888888888888888888888888888888888888|

G:---------------------------------------------------------|
D:---------------------------------------------------------|
A:---------------------------------------------------------|
E:888888888888888888888888888888888888888888888888888888888|

Second Solo
G:---------------------------------------------------------|
D:---------------------------------------------------------|
A:888888888888888888888888888888888888888888888888888888888|
E:---------------------------------------------------------|

G:---------------------------------------------------------|
D:---------------------------------------------------------|
A:888888888888888888888888888888888888888888888888888888888|
E:---------------------------------------------------------|

Before third solo
G:---------------------------------------------------------|
D:---------------------------------------------------------|
A:---------------------------------------------------------|
E:888888888888888888888888888888888888888888888888888888888|

G:---------------------------------------------------------|
D:---------------------------------------------------------|
A:---------------------------------------------------------|
E:888888888888888888888888888888888888888888888888888888888|

Third Solo
G:---------------------------------------------------------|
D:---------------------------------------------------------|
A:888888888888888888888888888888888888888888888888888888888|
E:---------------------------------------------------------|

G:---------------------------------------------------------|
D:---------------------------------------------------------|
A:888888888888888888888888888888888888888888888888888888888|
E:---------------------------------------------------------|

After third solo
G:--------------------|
D:--------------------|
A:--------------------|
E:8*--6-8*--6-8*--6-8*|

Next Part 
G:-------------------------------------------------------------------|
D:-------------------------------------------------------------------|
A:8-888-888-888-888-888-888-888-88-8-8-888-888-888-888-888-888-888-88|
E:-------------------------------------------------------------------|

G:------------------------------------------------------------------|
D:------------------------------------------------------------------|
A:4-444-444-444-44------------------8-888-888-888-888-888-888-888-88|
E:-----------------6-666-666-666-66---------------------------------|

G:-------------------------------------------------------------------|
D:-------------------------------------------------------------------|
A:8-888-888-888-888-888-888-888-88-8-8-888-888-888-888-888-888-888-88|
E:-------------------------------------------------------------------|

G:------------------------------------------------------------------|
D:------------------------------------------------------------------|
A:4-444-444-444-44------------------8-888-888-888-888-888-888-888-88|
E:-----------------6-666-666-666-66---------------------------------|

G:-------------------------------------------------------------------|
D:-------------------------------------------------------------------|
A:8-888-888-888-888-888-888-888-88-8-8-888-888-888-888-888-888-888-88|
E:-------------------------------------------------------------------|

G:------------------------------------------------------------------|
D:------------------------------------------------------------------|
A:4-444-444-444-44------------------8-888-888-888-888-888-888-888-88|
E:-----------------6-666-666-666-66---------------------------------|

G:-------------------------------------------------------------------|
D:-------------------------------------------------------------------|
A:8-888-888-888-888-888-888-888-88-8-8-888-888-888-888-888-888-888-88|
E:-------------------------------------------------------------------|

G:------------------------------------------------------------------|
D:------------------------------------------------------------------|
A:4-444-444-444-44------------------8-888-888-888-888-888-888-888-88|
E:-----------------6-666-666-666-66---------------------------------|

Chorus

End
G:--------------------------|
D:--------------------------|
A:8*-8*-8*-8*--8*-8*-8*-8*--|
E:--------------------------|

That's it. Awesome song, and like I said, this tab is correct. I've already 
put it in order for you so your life is now even easier. Any questions or comments, 
e-mail me at rocklvson@yahoo.com



Share "Chainsaw Charlie" by Wasp


TOP 10 TABS

FRESH NEW TABS

ALL ARTISTS
artist wiki

mp3bear.com
song lyrics / contact us / privacy policy / tabspace toolbar
Copyright 2004 - 2014 TabSpace.com - All Rights Reserved.
song: chainsaw charlie bass tabs by wasp

0.012