:: Guitar & Bass Tabs Make Home Page
A B C D E F G H I J K L M N O P Q R S T U V W X Y Z #

  for    

On TABSPACE
Info About This Tab
Artist: Margot And The Nuclear So And Sos
Tab Type: Guitar
Rate This Tab!
CHILDHOOD BLUES NO.15

Standard Tuning

INTRO

e|----------------------------------------|
b|----------------------------------------|
g|----------------------------------------|
d|--2-0h2--2------0h2--X3--2-0h2--2--2----|
a|--2------2-0h2-----------2------2-------|
E|--0------0---------------0------0-------|

VERSE

e|---------------------------------------|
b|---------1-----------------------------|
g|---------------------------------------|
d|--2-0h2--2------2-0h2--2--2---X2-------|
a|--2------3---x--2------2---------------|
E|--0------x---2--0------0---------------|

CHORUS - (there are parts in here that you pick out, but im just giving specific notes 
you can go by)

e|-------------------------------------|
b|--1--1--1--0--------------3----------|
g|--2--2-------------------------------|
d|--2-----------------2-----2-----2----|
a|-----x--------2--x--2--0--3--x--2----|
E|-----2--------3--2--0--------2--0----|

FILL

e|--------------------------------------|
b|--------------------------------------|
g|--------------------------------------|
d|--2-0h2---2------0h2---2-0h2--2--2----|
a|--2-------2-0h2--------2------2-------|
E|--0-------0------------0------0-------|


FILL NUMBER 2

e|--------------------------------------------------|
b|-----3----------------------------0----3--0-------|
g|-----------------------0--------0-----------------|
d|--2--2-----2-------0h2----2--2---------------2----|
a|--2--3--x--2--0h2---------2--3-------x-------2----|
E|--0--x--2--0--------------0--x-------2-------0----|


STRUCTURE

INTRO
VERSE
CHORUS
FILL
VERSE
CHORUS
INTRO
VERSE
CHORUS X2
FILL
FILL NUMBER 2


Share "Childhood Blues No 15" by Margot And The Nuclear So And Sos


TOP 10 TABS

FRESH NEW TABS

ALL ARTISTS
artist wiki

mp3bear.com
song lyrics / contact us / privacy policy / tabspace toolbar
Copyright 2004 - 2014 TabSpace.com - All Rights Reserved.
song: childhood blues no 15 guitar tabs by margot and the nuclear so and sos

0.022