:: Guitar & Bass Tabs Make Home Page
A B C D E F G H I J K L M N O P Q R S T U V W X Y Z #

  for    

On TABSPACE
Info About This Tab
Artist: Daphne Loves Derby
Tab Type: Guitar
Rate This Tab!
--------------------------------------------------------
     "Christmas Lights" - Daphne Loves Derby
--------------------------------------------------------
Tabbed by: Justin RiRaY
Email: Pakman7JR@hotmail.com       AIM: BeatPwner

Tuning: eBGDAE


     VERSE (figure stumming pattern)
 
e|------------------------|
B|------------------------| \
G|--4----3----6-----------|
D|--4----4----6----2--4---|  X 2
A|--2----1----4----2--4---|
E|-----------------0--2---| /


     Pre-CHORUS
 
e|-----------------------|
B|-----------------------| \
G|-----------------------|
D|--6-6--4-4--2-2--2-2---|  X 3
A|--6-6--4-4--2-2--2-2---|
E|--4-4--2-2--0-0--0-0---| /
 
e|-----------| |--------------------|
B|-----------| |--------------------|
G|--4---3-3--| |--------------------|
D|--4---4-4--| |-4-4--6-6--2-2--2-2-|
A|--2---1/2--| |-4-4--6-6--2-2--2-2-| X2
E|-----------| |-2-2--4-4--0-0--0-0-|
                  (pickslide the end)

     CHORUS (figure stumming pattern)

e|-------------------------------------|
B|-------------------------------------|
G|----------------------------4--------|
D|-2--6--4--2--2--6--4--2--2--4--4--2--|
A|-2--6--4--2--2--6--4--2--2--2--4--2--|
E|-0--4--2--0--0--4--2--0--0-----2--0--|
 
e|--------------|
B|--------------|
G|--------------|
D|--6~--4~--2~--|
A|--6~--4~--2~--|
E|--4~--2~--0~--|


     VERSE 2
 
e|--------------------|
B|--------------------|
G|-----------6-6-8~---|
D|--6-6-2~---6-6-8~---|
A|--6-6-2~---4-4-6~---|
E|--4-4-0~------------|

(figure out strumming pattern) 
e|---------------------------|
B|---------------------------|
G|--8--6--8--6--4--6--8--6---|
D|--x--x--x--x--x--x--x--x---|
A|--6--4--6--4--2--4--6--4---|
E|---------------------------|


     SOLO BRIDGE (guitar 1)
 
e|--------------------------|
B|--------------------------| \
G|--------------------------|
D|-2-2--2--2-2--4-4--4-4/6--|  X 4
A|-2-2--2--2-2--4-4--4-4/6--|
E|-0-0--0--0-0--2-2--2-2/4--| /

(figure out strumming pattern) 
e|------------------------------|
B|------------------------------|
G|------------------------------|
D|--2--6--2--6--2--6--2--6-4-2--||-2-2-2-2-|
A|--2--6--2--6--2--6--2--6-4-2--||-2-2-2-2-|
E|--0--4--0--4--0--4--0--4-2-0--||-0-0-0-0-|

 

     SOLO BRIDGE (guitar 2)
 
e|--------14-------14--------------14-------14-12-11-|
B|--11h12p---11h12p---11-12--11h12p---11h12p---------|
G|---------------------------------------------------|
D|---------------------------------------------------|
A|---------------------------------------------------|
E|---------------------------------------------------|
 
e|--------14-------14--------------14-------14-14/16-|
B|--11h12p---11h12p---11-12--11h12p---11h12p---------|
G|---------------------------------------------------|
D|---------------------------------------------------|
A|---------------------------------------------------|
E|---------------------------------------------------|
 
e|--------14-------14--------------14-------14-12-11-|
B|--11h12p---11h12p---11-12--11h12p---11h12p---------|
G|---------------------------------------------------|
D|---------------------------------------------------|
A|---------------------------------------------------|
E|---------------------------------------------------|

e|--------14-------14--------------14-------14-12-11-|
B|--11h12p---11h12p---11-12--11h12p---11h12p---------|
G|---------------------------------------------------|
D|---------------------------------------------------|
A|---------------------------------------------------|
E|---------------------------------------------------|

  [rest]

e|--------------------------------------------------------|
B|-11h12p11h12p11h12p11h12p11h12p11h12p11h12p11h12p11h12p-|
G|--------------------------------------------------------|
D|--------------------------------------------------------|
A|--------------------------------------------------------|
E|--------------------------------------------------------|


Share "Christmas Lights" by Daphne Loves Derby


TOP 10 TABS

FRESH NEW TABS

ALL ARTISTS
artist wiki

mp3bear.com
song lyrics / contact us / privacy policy / tabspace toolbar
Copyright 2004 - 2014 TabSpace.com - All Rights Reserved.
song: christmas lights guitar tabs by daphne loves derby

0.034