:: Guitar & Bass Tabs Make Home Page
A B C D E F G H I J K L M N O P Q R S T U V W X Y Z #

  for    

On TABSPACE
Info About This Tab
Artist: Daphne Loves Derby
Tab Type: Guitar
Rate This Tab!
Artist: Daphne Loves Derby
Song: Closing Down The Pattern Department

Tabbed by Trevor Shintaku =D


Hey i tabbed this song so a single person can learn it with the cd
and play it for that special someone ;)

-OR-

tune all strings a half step down
to play with the rainydawg radio special


anyway, here's your song

INTRO

E------------------------------------------0--|
B------------------------------------------0--|
G--x-x-x--11-------4-------11-------4------4--|
D--x-x-x--12-(x12)-5-(x12)-12-(x12)-5-(x6)-5--|
A--x-x-x--10-------3-------10-------3------3--|
E---------------------------------------------|


E---0-------0--------0-------0------|----------|
B---0-------0--------0-------0------|--4-------|
G--11-------4-------11-------4------|--0-------|
D--12-(x12)-5-(x12)-12-(x12)-5-(x6)-|--5-(x7)--|
A--10-------3-------10-------3------|--6-------|
E-----------------------------------|----------|


VERSE

Hey, did you hear about my mistakes...
E---0--|---------------------------------|
B---0--|---------------------------------|
G--11--|--x-x--x-x-x--4--------4---------|
D--12--|--x-x--x-x-x--5--(x16)-5-(x16)---|
A--10--|--x-x--x-x-x--2--------3---------|
E------|---------------------------------|
                     |---palm mute-------|

PRECHORUS

All along you were there...
E-------------0--0-0-0--0-0-0--|
B--4-4--4-4-4-0--0-0-0--0-0-0--|
G--0-0--0-0-0-0--0-0-0--0-0-0--|
D--5-5--5-5-5-5--5-5-5--5-5-5--|
A--6-6--6-6-6-7--7-7-7--7-7-7--|
E------------------------------|

E-------------0-0--0-0--0-0-0--0-0-0--0-0--0-0--0-0-0--0-0-0--0-------|
B--4-4--4-4-4-0-0--0-0--0-0-0--0-0-0--0-0--0-0--0-0-0--0-0-0--0-------|
G--0-0--0-0-0-9-9--7-7--5-5-5--5-5-5--x-x--7-7--5-5-5--5-5-5--5-------|
D--5-5--5-5-5-9-9--7-7--5-5-5--5-5-5--2-2--7-7--5-5-5--5-5-5--5-(x5)--|
A--6-6--6-6-6-7-7--5-5--3-3-3--3-3-3--2-2--5-5--3-3-3--3-3-3--3-------|
E-------------0-0--0-0--0-0-0--0-0-0--0-0--0-0--0-0-0--0-0-0--0-------|


CHORUS

We don't have to wait for anything...
---0--------0--------|
---0--------0--------|
---0--------4--------|
---4-(x12)--5-(x12)--| (x3)
---5--------3--------|
---3--------0--------|

E--0-0-0--0-0-0--0-0-0--0-0-0--0-0-0--0-0-0--0-0-0--0-0-0--|
B--0-0-0--0-0-0--0-0-0--0-0-0--0-0-0--0-0-0--0-0-0--0-0-0--|
G--x-x-x--x-x-x--7-7-7--7-7-7--5-5-5--5-5-5--5-5-5--5-5-5--|
D--2-2-2--2-2-2--7-7-7--7-7-7--5-5-5--5-5-5--5-5-5--5-5-5--|
A--2-2-2--2-2-2--5-5-5--5-5-5--3-3-3--3-3-3--3-3-3--3-3-3--|
E--0-0-0--0-0-0--0-0-0--0-0-0--0-0-0--0-0-0--0-0-0--0-0-0--|


VERSE TWO

Forgive me but I...
E--------------------------------------------------|
B--------------------------------------------------|
G--4-4--4h5p4--4-4--4h5p4--------------------------|
D--5-5--5------5-5--5------4-4--4h5p4--4-4--4h5p4--|   (x2)
A--3-3--3------3-3--3------5-5--5------5-5--5------|
E--------------------------3-3--3------3-3--3------|

E------------------------------------------------|
B------------------------------------------------|
G--4-4--4h5p4--4-4--4h5p4--4-4--4-4--4-4--4h5p4--|
D--5-5--5------5-5--5------4-4--5-5--4-4--5------|
A--3-3--3------3-3--3------2-2--3-3--2-2--3------|
E------------------------------------------------|

PRE-CHORUS

And all along you were there...
E-------------0--0-0-0--0-0-0--|
B--4-4--4-4-4-0--0-0-0--0-0-0--|
G--0-0--0-0-0-0--0-0-0--0-0-0--|
D--5-5--5-5-5-5--5-5-5--5-5-5--|
A--6-6--6-6-6-7--7-7-7--7-7-7--|
E------------------------------|

E-------------0-0--0-0--0-0-0--0-0-0--0-0--0-0--0-0-0--0-0-0--0-------|
B--4-4--4-4-4-0-0--0-0--0-0-0--0-0-0--0-0--0-0--0-0-0--0-0-0--0-------|
G--0-0--0-0-0-9-9--7-7--5-5-5--5-5-5--x-x--7-7--5-5-5--5-5-5--5-------|
D--5-5--5-5-5-9-9--7-7--5-5-5--5-5-5--2-2--7-7--5-5-5--5-5-5--5-(x6)--|
A--6-6--6-6-6-7-7--5-5--3-3-3--3-3-3--2-2--5-5--3-3-3--3-3-3--3-------|
E-------------0-0--0-0--0-0-0--0-0-0--0-0--0-0--0-0-0--0-0-0--0-------|


CHORUS

We don't have to wait for...
---0--------0--------|
---0--------0--------|
---0--------4--------|
---4-(x12)--5-(x12)--| (x3)
---5--------3--------|
---3--------0--------|

E--0-0-0--0-0-0--0-0-0--0-0-0--0-0-0--0-0-0--0-0-0--0-0-0--|
B--0-0-0--0-0-0--0-0-0--0-0-0--0-0-0--0-0-0--0-0-0--0-0-0--|
G--x-x-x--x-x-x--7-7-7--7-7-7--5-5-5--5-5-5--5-5-5--5-5-5--|
D--2-2-2--2-2-2--7-7-7--7-7-7--5-5-5--5-5-5--5-5-5--5-5-5--|
A--2-2-2--2-2-2--5-5-5--5-5-5--3-3-3--3-3-3--3-3-3--3-3-3--|
E--0-0-0--0-0-0--0-0-0--0-0-0--0-0-0--0-0-0--0-0-0--0-0-0--|


BREAKDOWN

I am so far, I couldn't see...
E---0-------0-------0-------0-------|
B---0-------0-------0-------0-------|
G---0-------0-------4-------4-------|
D---4-(x8)--x-(x8)--4-(x8)--5-(x8)--|
A---5-------7-------2-------3-------|
E---3-------5-------0-------0-------|

E---0-------0-------0-------0-------|
B---0-------0-------0-------0-------|
G---0-------0-------4-------4-------|
D---4-(x8)--x-(x8)--4-(x8)--5-(x5)--|
A---5-------7-------2-------3-------|
E---3-------5-------0-------0-------|


All along you were there...
E----------------0--|
B--4--4-4-4-4-4--0--|
G--0--0-0-0-0-0--0--|
D--5--5-5-5-5-5--5--|  (x4)
A--6--6-6-6-6-6--7--|
E-------------------|
     |palm mute|

Please forgive me...
E---0-------0-------0-------0---------|
B---0-------0-------4-------0---------|
G---5-------4-------0-------0---------|
D---5-(x8)--5-(x8)--5-(x8)--5-(x8)----|  (x6)
A---3-------2-------6-------7---------|
E---0-------0-------0-------0---------|
   |--------palm mute-----------------|

E----------------0----------------0-0--0-0--0--0-0--0-0--0--0--0-------|
B--4--4-4-4-4-4--0--4--4-4-4-4-4--0-0--0-0--0--0-0--0-0--0--0--0-------|
G--0--0-0-0-0-0--0--0--0-0-0-0-0--x-x--7-7--5--x-x--7-7--5--5--5-------|
D--5--5-5-5-5-5--5--5--5-5-5-5-5--2-2--7-7--5--2-2--7-7--5--5--5-(x5)--|
A--6--6-6-6-6-6--7--6--6-6-6-6-6--2-2--5-5--3--2-2--5-5--3--3--3-------|
E-----0---------------------------0-0--0-0--0--0-0--0-0--0--0--0-------|
     |palm mute|     |palm mute|


CHORUS

We don't have to wait for...
---0--------0--------|
---0--------0--------|
---0--------4--------|
---4-(x12)--5-(x12)--| (x3)
---5--------3--------|
---3--------0--------|

E--0-0-0--0-0-0--0-0-0--0-0-0--0-0-0--0-0-0--0-0-0--0-0-0--|
B--0-0-0--0-0-0--0-0-0--0-0-0--0-0-0--0-0-0--0-0-0--0-0-0--|
G--x-x-x--x-x-x--7-7-7--7-7-7--5-5-5--5-5-5--5-5-5--5-5-5--|
D--2-2-2--2-2-2--7-7-7--7-7-7--5-5-5--5-5-5--5-5-5--5-5-5--|
A--2-2-2--2-2-2--5-5-5--5-5-5--3-3-3--3-3-3--3-3-3--3-3-3--|
E--0-0-0--0-0-0--0-0-0--0-0-0--0-0-0--0-0-0--0-0-0--0-0-0--|


ENDING

Yeah, you love me even though...
E--0-0-0--0-0-0--0-0-0--0-0-0--0-0-0--0-0-0--0-0-0--0-0-0--|
B--0-0-0--0-0-0--0-0-0--0-0-0--0-0-0--0-0-0--0-0-0--0-0-0--|
G--9-9-9--9-9-9--7-7-7--7-7-7--5-5-5--5-5-5--5-5-5--5-5-5--|
D--9-9-9--9-9-9--7-7-7--7-7-7--5-5-5--5-5-5--5-5-5--5-5-5--| (x2)
A--7-7-7--7-7-7--5-5-5--5-5-5--3-3-3--3-3-3--3-3-3--3-3-3--|
E--0-0-0--0-0-0--0-0-0--0-0-0--0-0-0--0-0-0--0-0-0--0-0-0--|

E--0-0-0--0-0-0--0-0-0--0-0-0--0--|
B--0-0-0--0-0-0--0-0-0--0-0-0--0--|
G--9-9-9--9-9-9--7-7-7--7-7-7--5--|
D--9-9-9--9-9-9--7-7-7--7-7-7--5--|
A--7-7-7--7-7-7--5-5-5--5-5-5--3--|
E--0-0-0--0-0-0--0-0-0--0-0-0--0--|


Share "Closing Down The Pattern Department" by Daphne Loves Derby


TOP 10 TABS

FRESH NEW TABS

ALL ARTISTS
artist wiki

mp3bear.com
song lyrics / contact us / privacy policy / tabspace toolbar
Copyright 2004 - 2014 TabSpace.com - All Rights Reserved.
song: closing down the pattern department guitar tabs by daphne loves derby

0.016