:: Guitar & Bass Tabs Make Home Page
A B C D E F G H I J K L M N O P Q R S T U V W X Y Z #

  for    

On TABSPACE
Info About This Tab
Artist: Misc Television
Tab Type: Bass
Difficulty: novice
Rate This Tab!
Colbert Report
Bass Tab

Intro
G---------------------------------------------------------------------|
D-12--------12-------14-----------------------------------------------|
A-----12--------------------12----------------------------------------|
E---------------------------------------------------------------------|


G----------------------------------------------------------------------------|
D----------------------------------------------------------------------------|
A---3-3---3-3-3-3------5-5----5-5-5-5----------------------------------------|
E----------------------------------------------------------------------------|
AND SO ON


G----------------------------------------------------------------------------|
D--12--------12----14--------------------------------------------------------|
A-----12---------------12----------------------------------------------------|
E----------------------------------------------------------------------------|


Share "Colbert Report Theme" by Misc Television


TOP 10 TABS

FRESH NEW TABS

ALL ARTISTS
artist wiki

mp3bear.com
song lyrics / contact us / privacy policy / tabspace toolbar
Copyright 2004 - 2014 TabSpace.com - All Rights Reserved.
song: colbert report theme bass tabs by misc television

0.021