:: Guitar & Bass Tabs Make Home Page
A B C D E F G H I J K L M N O P Q R S T U V W X Y Z #

  for    

On TABSPACE
Info About This Tab
Artist: Damn Yankees
Tab Type: Guitar
Rate This Tab!
Come Again -- Damn Yankees

Standard Tuning --(E A D G B E)

Intro


e|-----------------------------------0------0--------------------------0--|
B|-- 1- 3p1-1----1-3-1---0-3-0------3-3---3--3-3---0-1-3-1-0---1-3p1-1-1--|
G|----2----0------0-----0-----0-0--3-----3-3--3---0-------------2---0--2--|
D|-2---------------------------0------------------------------2--------2--|
A|0----------2-3---------------------------------------------0---------0--|
E|---------------------3----------2-----1-------3-------------------------|

verse


intro again
"...come again"
e|-0-----0---1-----------0-----0---1-----------------------------------------|
B|-1-x-x-1-x-0-----------1-x-x-1-x-0-----------------------------------------|
G|-2-x-x-0-x-0-----------2-x-x-0-x-0-----------------------------------------|
D|-2-x-x-2-x-0-----------2-x-x-2-x-0-----------------------------------------|
A|-0-----3---2-----------0-----3---2-----------------------------------------|
E|-----------3---------------------3-----------------------------------------|

e|-----------------------------------0------0-----------------------------------|
B|-- 1- 3p1-1----1-3-1---0-3-0------3-3---3--3-3---0-1-3-1-0------1-------1-----|
G|----2----0------0-----0-----0-0--3-----3-3--3---0-------------2--2-2--0--0-9--|
D|-2---------------------------0---------------------------------2--2----2--2---| intro again
A|0----------2-3---------------------------------------------0-0-------3--------|
E|---------------------3----------2-----1-------3-------------------------------|

chorus

Am C G D - listen to song for correct timing


     AM           C           G        D
   00221        032010     320003    X00232


Share "Come Again" by Damn Yankees


TOP 10 TABS

FRESH NEW TABS

ALL ARTISTS
artist wiki

mp3bear.com
song lyrics / contact us / privacy policy / tabspace toolbar
Copyright 2004 - 2014 TabSpace.com - All Rights Reserved.
song: come again guitar tabs by damn yankees

0.002