:: Guitar & Bass Tabs Make Home Page
A B C D E F G H I J K L M N O P Q R S T U V W X Y Z #

  for    

On TABSPACE
Info About This Tab
Artist: Daphne Loves Derby
Tab Type: Guitar
Rate This Tab!
-------------------------------------------------------------------------------
                    Come Winter - Daphne Loves Derby
-------------------------------------------------------------------------------

Tabbed by: anTHONGny
Tuning: Half-Step Up

e#--0-----0-----0-----0-----x-x-x-|
B#--1-----1-----1-----1-----x-x-x-|
G#--0-----2-----2-----2-----x-x-x-|  X2
D#--2-----3-----2-----3-----x-x-x-|
A#--3-----3-----0-----3-----x-x-x-|
E#--0-----0-----0-----0-----x-x-x-|

e#--3-----1-|                       -1-		
B#--3-----1-|                       -1-
G#--4-----2-|  X5 - Last time Strum -2- Once
D#--5-----3-|                       -3-
A#--5-----3-|                       -3-
E#--3-----1-|                       -1-


Brief Solo during the "Breakdown"
e#----------------------------------------------------------------------------|
B#----------------------------------------------------------------------------|
G#----------------------------------------------------------------------------|
D#--12\10-10-10--10\9-9-9--9\7-7-7--7\5-5-5--5\3-3-3--3\2-2-2--2/3-3-3--------|
A#---------------------------------------------------------------------3-3-3--|
E#----------------------------------------------------------------------------|

e#---------------0----------------------------|
B#-----------------3-1-0----------------------|
G#-----------------------2-0------------------|
D#---------0-2-3-------------3-2-0-----0-2----|
A#--0-2-3--------------------------3-3-----3--|
E#--------------------------------------------|


Ending: *After 6/7 taps
e#--0------------0------------0------------0--------|
B#--1-0---0-1----0-1---0-1----0-1---0-1----0-1---1--|
G#--2------------2------------2------------2--------|
D#--2------------3------------2------------3--------|
A#--0------------3------------0------------3--------|
E#--0------------0------------0------------0--------|

e#--0-----0-----0-----0-----x-x-x-|
B#--1-----1-----1-----3-----x-x-x-|
G#--2-----0-----2-----4-----x-x-x-| X4
D#--2-----2-----3-----5-----x-x-x-|
A#--0-----3-----3-----5-----x-x-x-|
E#--0-----0-----0-----3-----x-x-x-|


Share "Come Winter" by Daphne Loves Derby


TOP 10 TABS

FRESH NEW TABS

ALL ARTISTS
artist wiki

mp3bear.com
song lyrics / contact us / privacy policy / tabspace toolbar
Copyright 2004 - 2014 TabSpace.com - All Rights Reserved.
song: come winter guitar tabs by daphne loves derby

0.003