:: Guitar & Bass Tabs Make Home Page
A B C D E F G H I J K L M N O P Q R S T U V W X Y Z #

  for    

On TABSPACE
Info About This Tab
Artist: Electric Six
Tab Type: Guitar
Difficulty: intermediate
Rate This Tab!
Intro
e|-------------------------------------|
B|-------------------------------------|
G|---12-----12x12x--11----- 14x 12x----|
D|---12-x3--12x12x--11-x3--14x-12x-----|
A|---10-----10x10x---9----- 12x-10x----|
E|-------------------------------------|

Verse (same as intro, with a slide at the end)

B| --12\0
G|-- 12\0

(You know it's still on my mind still on my mind....)
e|----------------------------------------|
B|----------------------------------------|
G|---9999x-9999x-9999x--------------------|
D|---9999x-9999x-9999x----9--5------------|      x2
A|---7777x-7777x-7777x----9--5------------|
E|------------------------- 7--3----------|

(I want it so bad and I'm never gonna get it...)
e|---------------------------------|
B|---12------ 11x11x11x11x---------|
G|---12--x4-  11x11x11x11x---------|
D|---12------11x11x11x11x----------|
A|---------------------------------|
E|----------------------------12\--|

(Baby, Looks like a Dance Epidemic to me...)
e|-------------------------------------|
B|-------------------------------------|
G|-----4x5--7-----------4x5--7---------|
D|--2--4x5--7-- 7x5--2--4x5--7-- 7x5---|
A|--2--2x3--5-- 7x5--2--2x3--5-- 7x5---|
E|--0-----------5x3--0-----------5x3---|

Intro
e|--------------------------------------|
B|--------------------------------------|
G|---12-----12x12x--11----- 14x12x------|
D|---12-x3--12x12x--11-x3--14x12x-------|   x2
A|---10-----10x10x---9----- 12x10x------|
E|--------------------------------------|

Verse (Same as before, with this)
e|-----------------------------------------|
B|-15h17-15h17-10h12---10h12-10h12-8h10----|
G|-----------------------------------------|
D|-----------------------------------------|
A|-----------------------------------------|
E|-----------------------------------------|

e|------------------------------------------|
B|-17p15------------------------------------|
G|---  ~~~15~~~~///////---------------------|
D|------------------------------------------|
A|------------------------------------------|
E|------------------------------------------|

Then just slide up from that note


(You know it's still on my mind still on my mind....)
e|----------------------------------------|
B|----------------------------------------|
G|---9999x-9999x-9999x--------------------|
D|---9999x-9999x-9999x----9--5------------|      x2
A|---7777x-7777x-7777x----9--5------------|
E|------------------------- 7--3----------|


(I want it so bad and I'm never gonna get it...)
e|---------------------------------|
B|---12------ 11x11x11x11x---------|
G|---12--x4-  11x11x11x11x---------|
D|---12------11x11x11x11x----------|
A|---------------------------------|
E|----------------------------12\--|

(Baby, Looks like a Dance Epidemic to me...)
e|-------------------------------------|
B|-------------------------------------|
G|-----4x5--7-----------4x5--7---------|
D|--2--4x5--7-- 7x5--2--4x5--7-- 7x5---|
A|--2--2x3--5-- 7x5--2--2x3--5-- 7x5---|
E|--0-----------5x3--0-----------5x3---|

Bridge
(It's Gettin' Harder to Breathe...)
e|-------------------------------|
B|-------------------------------|
G|-------------------------------|
D|--2------7-9-------------------|     x3
A|--2--7h9-----------------------|
E|--0----------------------------|

(I want it so bad and I'm never gonna get it...)
e|---------------------------------|
B|---12------ 11x11x11x11x---------|
G|---12--x4-  11x11x11x11x---------|
D|---12------11x11x11x11x----------|
A|---------------------------------|
E|----------------------------12\--|

Solo (Some of it's correct, some of it... not so much)
e|-------------------------------10-----10-10---10-10---10- 10---10---------|
B|---12h14-12--11h12-11-----------10h12b----10h12-- 10h12--- 10h12----------|
G|---12h14 12--11h12-11--10b12b---------------------------------------------|
D|--------------------------------------------------------------------------|
A|--------------------------------------------------------------------------|
E|--------------------------------------------------------------------------|

e|----12~~~~~ --------------------------------------------------------------|
B|------------12~~11~~15~~~~10~8~5~~~3h5 3h5 3h5--3~~~~~--------------------|
G|--------------------------------------------------------------------------|
D|--------------------------------------------------------------------------|
A|--------------------------------------------------------------------------|
E|--------------------------------------------------------------------------|


(Baby, Looks like a Dance Epidemic to me...)
e|--------------------------------------------|
B|--------------------------------------------|
G|------  4x5--7-----------4x5--7-------------|
D|--*(2)--4x5--7-- 7x5--2--4x5--7-- 7x5-------|     x2
A|--*(2)--2x3--5-- 7x5--2--2x3--5-- 7x5-------|
E|--*(0)-----------5x3--0-----------5x3-------|

*The first chord in the first chorus riff this time isn't played.
e|---------------------------|
B|---------------------------|
G|---9999x-9999x-9999x-------|
D|---9999x-9999x-9999x-------|
A|---7777x-7777x-7777x-------|
E|---------------------------|

End With
e|---------|
B|---------|
G|---------|
D|--2~~~~~
A|--2~~~~~
E|--0~~~~~


Share "Dance Epidemic" by Electric Six


TOP 10 TABS

FRESH NEW TABS

ALL ARTISTS
artist wiki

mp3bear.com
song lyrics / contact us / privacy policy / tabspace toolbar
Copyright 2004 - 2014 TabSpace.com - All Rights Reserved.
song: dance epidemic guitar tabs by electric six

0.024