:: Guitar & Bass Tabs Make Home Page
A B C D E F G H I J K L M N O P Q R S T U V W X Y Z #

  for    

On TABSPACE
Info About This Tab
Artist: Misc Television
Tab Type: Guitar
Difficulty: novice
Rate This Tab!
lykkehjulet

tab:a.k Senftleber :}

|-20b------10--------------------------------------------| 
|-----13b-----13-12-10--13-13-12-10----------------------| 
|-----------------------------------11-------------------| 
|-------------------------------------12-----------------| 
|---------------------------------------13-/-14-/-15-----| 
|--------------------------------------------------------| 

|-------5-5-5-------------5-5-5-----------------| 
|---7-8-------8-7-----7-8-------8-7-5-----------| 
|-7---------------7-----------------------------| 
|-----------------------------------------------| 
|-----------------------------------------------| 
|-----------------------------------------------| 

|--------------------------------5--------------| 
|-5-7-8-8-8-7-5---5-7-8-8-8-7-5-----------------| 
|----------------------------------7------------| 
|-----------------------------------------------| 
|-----------------------------------------------| 
|-----------------------------------------------| 

|-----------------------------------------------| 
|---5--7-7--5---------5-7-8-7-------------------| 
|-7-----------7---7-7---------5-7---------------| 
|-----------------------------------------------| 
|-----------------------------------------------| 
|-----------------------------------------------| 


Share "Dansk Lykkehjulet Theme" by Misc Television


TOP 10 TABS

FRESH NEW TABS

ALL ARTISTS
artist wiki

mp3bear.com
song lyrics / contact us / privacy policy / tabspace toolbar
Copyright 2004 - 2014 TabSpace.com - All Rights Reserved.
song: dansk lykkehjulet theme guitar tabs by misc television

0.009