:: Guitar & Bass Tabs Make Home Page
A B C D E F G H I J K L M N O P Q R S T U V W X Y Z #

  for    

On TABSPACE
Info About This Tab
Artist: Zombie Slumber Party
Tab Type: Guitar
Rate This Tab!
Zombie Slumber Party
“Dead By Dawn”
Tuning-Drop C
http://www.myspace.com/zombieslumberparty

INTRO:
Guitar 1
D|------------------------------------------------------|-------------|
A|------------------------------------------------------|-------------|
F|------------------------------------------------------|-------------|
C|------------------------------------------------------|-------------|
G|--5---3---8---7---5-7--8---8---8---7---7---7----------|-7\2---------|
C|---0-0-0-0-0-0-0-0-0----8-8-8-8-8---7-7-7-7-7---------|-7\2---------|
     . . . . . . . . .    . . . . .   . . . . .
     
     
Guitar 2
D|----------------------------------5---5-5------3---3-3--|-----------|
A|---5-6-8-6-5--------—5-6-5-----6-6-6-6-6----5-5-5-5-5---|-----------|
F|-7-----------7-7-7-7------------------------------------|-----------|
C|--------------------------------------------------------|-----------|
G|--------------------------------------------------------|-7\2-------|
C|--------------------------------------------------------|-7\2-------|


Guitar 3
D|--------------------------------------------------------------|-----|
A|-6--8--10--11--10--8--6-6-6-6—8-10-8-----6----6-6----5----5-5-|-----|
F|--------------------------------------7-7--7-7-7--5-5--5-5-5--|-----|
C|--------------------------------------------------------------|-----|
G|--------------------------------------------------------------|-7\2-|
C|--------------------------------------------------------------|-7\2-|

VERSE:
Guitar 1
D|--------------------------------------------------------------------|
A|--------------------------------------------------------------------|
F|--------------------------------------------------------------------|
C|--------------------------------------------------------------------|
G|--5~-------8-7-------10-8-----------12--8-10------------------------|
C|---000-000---000-000----000-000-000--00-0--0------------------------|
     ... ...   ... ...    ... ... ...  .. .  .
Guitar 2
D|--------------------------------------------------------------------|
A|--------------------------------------------------------------------|
F|--------------------------------------------------------------------|
C|--------------------------------------------------------------------|
G|--8~-------12-10-------13-12-----------15--12-13--------------------|
C|---000-000------000-000-----000-000-000--00--0--0-------------------|
     ... ...      ... ...     ... ... ...  ..  .  .


| /  slide up
| \  slide down
| h  hammer-on
| p  pull-off
| ~  vibrato
| +  harmonic
| x  Mute note
| .  Palm Mute







Share "Dead By Dawn Intro" by Zombie Slumber Party


TOP 10 TABS

FRESH NEW TABS

ALL ARTISTS
artist wiki

mp3bear.com
song lyrics / contact us / privacy policy / tabspace toolbar
Copyright © 2004 - 2014 TabSpace.com - All Rights Reserved.
song: dead by dawn intro guitar tabs by zombie slumber party

0.011