:: Guitar & Bass Tabs Make Home Page
A B C D E F G H I J K L M N O P Q R S T U V W X Y Z #

  for    

On TABSPACE
Info About This Tab
Artist: Tokio Hotel
Tab Type: Bass
Difficulty: novice
Rate This Tab!
 intro :

g--------5--------5-----|
d-----7--------7--------|
a-----------------------| 4times
e ----------------------|

strophe 1 :

g--------------------------|
d--------------------------|
a--4-4-2-------------------|count how many
e-2-2-3--3-3-3-3-3-3-------|

bright :

g-------------------------|
d-------------------------|
a-------------------------|
e-1-1-1-1-3-2-1-1-1-1-2-3-|

1.refrain :

g------------------------|
d------------------------|
a-------111111-----------|
e-333333------2--4--2--4-|

2.strophe :

g----------------------|
d----------------------|
a----------------------|
e-333333-111111-000000-|

2. refrain
play refrain 1 so often as first
and then (noch nicht ...)

g--------------|
d--------------|
a--------------|
e-333-111-000--|
here you can improve !! thats funier

hope you enjoy !! this was my first tab ever so send me corections : mis.fits@freenet.de


Share "Der Letzte Tag" by Tokio Hotel


TOP 10 TABS

FRESH NEW TABS

ALL ARTISTS
artist wiki

mp3bear.com
song lyrics / contact us / privacy policy / tabspace toolbar
Copyright 2004 - 2014 TabSpace.com - All Rights Reserved.
song: der letzte tag bass tabs by tokio hotel

0.011