:: Guitar & Bass Tabs Make Home Page
A B C D E F G H I J K L M N O P Q R S T U V W X Y Z #

  for    

On TABSPACE
Info About This Tab
Artist: Tokio Hotel
Tab Type: Guitar
Difficulty: intermediate
Tuning: Drop D
Rate This Tab!
-----------------------------------------------------------------------------
			     Dogs Unleashed - Tokio Hotel
-----------------------------------------------------------------------------

Tabbed by:XxGuitarZer0xX

Email:Spongebobs400s@hotmail.com

Tuning:Drop D


This is 100% correct.
If you have are having any trouble with the song, refer to my guitar cover.

http://www.youtube.com/watch?v=HdHLv0JHHCo - XxGuitarzer0xX



Thanks and ENJOY!






Intro
e|-----------------------------------------------|
B|-----------------------------------------------|
G|--------------------5----3------------5----3---|
D|-/10~-\6~----3-3-33---33---3---3-3-33---33---3-| Repeat once more
A|-----------------------------------------------|
D|-----------3-----------------3-----------------|
Palm Mute    * * * **   **   * * * * **   **   *




Verse 1
e|---------------------------------------------------------------------------------------|
B|---------------------------------------------------------------------------------------|
G|---------------------------------------------------------------------------------------|
D|-3-333-36-666-68-888-81-111-13-333-36-666-68-888-81-111-13-333-36-666-68-888-81-111-11-|
A|-3-333-36-666-68-888-81-111-13-333-36-666-68-888-81-111-13-333-36-666-68-888-81-111-11-|
D|-3-333-36-666-68-888-81-111-13-333-36-666-68-888-81-111-13-333-36-666-68-888-81-111-11-|
Palm Mute all of this

Then play


e|------------------------|
B|------------------------|
G|------------------------|
D|------------------------|
A|------------------------|
D|-/3~-33-/6~-66-/8~-8888-|
These are not Palm Muted




Verse 2
e|---------------------------------------------------------------------------------------|
B|---------------------------------------------------------------------------------------|
G|---------------------------------------------------------------------------------------|
D|-3-333-36-666-68-888-81-111-13-333-36-666-68-888-81-111-13-333-36-666-68-888-81-111-11-|
A|-3-333-36-666-68-888-81-111-13-333-36-666-68-888-81-111-13-333-36-666-68-888-81-111-11-|
D|-3-333-36-666-68-888-81-111-13-333-36-666-68-888-81-111-13-333-36-666-68-888-81-111-11-|
Palm Mute all of this


Then play


e|------------------------|
B|------------------------|
G|------------------------|
D|------------------------|
A|------------------------|
D|-/3~-33-/6~-66-/8~-8888-|
These are not Palm Muted





Pre - Chorus
e|---------------------|
B|---------------------|
G|---------------------|
D|-3333-6666-8888-1111-| Repeat once more
A|-3333-6666-8888-1111-|
D|-3333-6666-8888-1111-|




Chorus
e|-------------------------------------|
B|-------------------------------------|
G|-66666666-55555555-------------------|
D|-66666666-66666666-33333333-66666666-| Repeat once more
A|-44444444-33333333-33333333-66666666-|
D|-------------------33333333-66666666-|




Post - Chorus
e|-------------------------------------------------------|
B|-------------------------------------------------------|
G|-66666666-88888888-66666666-88888888-66666666-55555555-|
D|-66666666-88888888-66666666-88888888-66666666-66666666-|
A|-44444444-66666666-44444444-66666666-44444444-33333333-|
D|-------------------------------------------------------|




After Post - Chorus
e|-----------------------------------|
B|-----------------------------------|
G|-----------------------------------|
D|-3-333-36-666-68-888-8-(PICKSLIDE)-|
A|-3-333-36-666-68-888-8-(PICKSLIDE)-|
D|-3-333-36-666-68-888-8-(PICKSLIDE)-|


Then


e|------------------------|
B|------------------------|
G|------------------------|
D|------------------------|
A|------------------------|
D|-/3~-33-/6~-66-/8~-8888-|
These are not Palm Muted




Verse 3
e|---------------------------------------------------------------------------------------|
B|---------------------------------------------------------------------------------------|
G|---------------------------------------------------------------------------------------|
D|-3-333-36-666-68-888-81-111-13-333-36-666-68-888-81-111-13-333-36-666-68-888-81-111-11-|
A|-3-333-36-666-68-888-81-111-13-333-36-666-68-888-81-111-13-333-36-666-68-888-81-111-11-|
D|-3-333-36-666-68-888-81-111-13-333-36-666-68-888-81-111-13-333-36-666-68-888-81-111-11-|
Palm Mute all of this


Then play


e|------------------------|
B|------------------------|
G|------------------------|
D|------------------------|
A|------------------------|
D|-/3~-33-/6~-66-/8~-8888-|
These are not Palm Muted




Pre - Chorus
e|---------------------|
B|---------------------|
G|---------------------|
D|-3333-6666-8888-1111-| Repeat once more
A|-3333-6666-8888-1111-|
D|-3333-6666-8888-1111-|




Chorus
e|-------------------------------------|
B|-------------------------------------|
G|-66666666-55555555-------------------|
D|-66666666-66666666-33333333-66666666-| Repeat once more
A|-44444444-33333333-33333333-66666666-|
D|-------------------33333333-66666666-|




Post - Chorus
e|-------------------------------------------------------|
B|-------------------------------------------------------|
G|-66666666-88888888-66666666-88888888-66666666-55555555-|
D|-66666666-88888888-66666666-88888888-66666666-66666666-|
A|-44444444-66666666-44444444-66666666-44444444-33333333-|
D|-------------------------------------------------------|





Bridge
e|-------------------------------------|
B|-------------------------------------|
G|-------------------------------------|
D|-88888888-33333333-66666666-11111111-| repeat 3 more times
A|-88888888-33333333-66666666-11111111-|
D|-88888888-33333333-66666666-11111111-|




Intro repeated here
e|-----------------------------------------------|
B|-----------------------------------------------|
G|--------------------5----3------------5----3---|
D|-/10~-\6~----3-3-33---33---3---3-3-33---33---3-| Repeat once more
A|-----------------------------------------------|
D|-----------3-----------------3-----------------|
Palm Mute    * * * **   **   * * * * **   **   *




Chorus
e|-------------------------------------|
B|-------------------------------------|
G|-66666666-55555555-------------------|
D|-66666666-66666666-33333333-66666666-| Repeat once more
A|-44444444-33333333-33333333-66666666-|
D|-------------------33333333-66666666-|




Post - Chorus
e|-------------------------------------------------------|
B|-------------------------------------------------------|
G|-66666666-88888888-66666666-88888888-66666666-55555555-|
D|-66666666-88888888-66666666-88888888-66666666-66666666-|
A|-44444444-66666666-44444444-66666666-44444444-33333333-|
D|-------------------------------------------------------|




Outro
e|-------------------------------------|
B|-------------------------------------|
G|----------5----3------------5----3---|
D|---3-3-33---33---3---3-3-33---33---3-|
A|-------------------------------------|
D|-3-----------------3-----------------|


Share "Dogs Unleashed" by Tokio Hotel


TOP 10 TABS

FRESH NEW TABS

ALL ARTISTS
artist wiki

mp3bear.com
song lyrics / contact us / privacy policy / tabspace toolbar
Copyright 2004 - 2014 TabSpace.com - All Rights Reserved.
song: dogs unleashed guitar tabs by tokio hotel

0.002