:: Guitar & Bass Tabs Make Home Page
A B C D E F G H I J K L M N O P Q R S T U V W X Y Z #

  for    

On TABSPACE
Info About This Tab
Artist: Yaz
Tab Type: Bass
Difficulty: novice
Rate This Tab!
Yazoo Don't go
  S Q    S T T T S. T T S E.  S S  
--3--------3---3----3---3-----3-3-|
----------------------------------|
----------------------------------|
----------------------------------|


  E  T S. S S T T T S. T S. S. S. S S  
-----3----3---3---1----1----1-----3-3-|
--------------------------------------|
--------------------------------------|
--------------------------------------|


  Q    S S T T S S T T S. T S E.   
-------3---3---3---3---1----3-----|
----------------------------------|
----------------------------------|
----------------------------------|


  S S T S. T S. T T S S S E  S. E  T  
--3---3----3----3---3---3-1--3-------|
-------------------------------------|
-------------------------------------|
-------------------------------------|


  S E.  T S. E.  T T E  T E.  T  
--3-----3----3---L---1--3-------|
--------------------------------|
--------------------------------|
--------------------------------|


  T S. T S. S. T S. Q    T S. T S T T  
--3----3----3----3---------3----6-3---|
-----------------6--------------------|
--------------------------------------|
--------------------------------------|


  S E.  T E  T E.  E  E  T T T T  
--1-----1-------------1------1---|
---------------1---3-----3-------|
---------------------------------|
---------------------------------|


  S E.  S. T S S H         
--3-----3----1-3----------|
--6-----------------------|
--------------------------|
--------------------------|


  S E.  T E  T E  S. E.  T T T T T  
--3-----3------3--3--------3---1---|
-----------------------------------|
-----------------------------------|
-----------------------------------|


  S E.  T E  T E  T T S. T T S. S S  
--3-----3------3--L---6----3----6-3-|
------------------------------------|
------------------------------------|
------------------------------------|


  S Q    S T T T S. T T E  S. T E   
--1--------1---1----1-----------1--|
------------------------1--3-------|
-----------------------------------|
-----------------------------------|


  S. E  T S E  S Q.     T T T T  
--3-------3----3--------3---3---|
--------------------------------|
--------------------------------|
--------------------------------|


  T S. T S. T S. T T E.  E  E  S S  
-----------------------------------|
--3----3----3----3---3---1-----1---|
----------------------------3----3-|
-----------------------------------|


  S E.  E  S S Q    E  E   
--3-----3--1-----------0--|
-------------4------3-----|
-------------8------------|
--------------------------|


  S E.  S. T S S Q    E  E   
--1-----1----0--------------|
---------------1------1-----|
----------------------------|
----------------------------|


  S Q    S T T T S. T T S E.  S S  
--3--------3---3----3---3-----3-3-|
----------------------------------|
----------------------------------|
----------------------------------|


  E  T S. S S T T T S. T S. S. S. S S  
-----3----3---3---1----1----1-----3-3-|
--------------------------------------|
--------------------------------------|
--------------------------------------|


  Q    S S T T S S T T S. T S E.   
-------3---3---3---3---1----3-----|
----------------------------------|
----------------------------------|
----------------------------------|


  S S T S. T S. T T S S S E  S. E  T  
--3---3----3----3---3---3-1--3-------|
-------------------------------------|
-------------------------------------|
-------------------------------------|


  S E.  T S. E.  T T E  T E.  T  
--3-----3----3---L---1--3-------|
--------------------------------|
--------------------------------|
--------------------------------|


  T S. T S. S. T S. Q    T S. T S T T  
--3----3----3----3---------3----6-3---|
-----------------6--------------------|
--------------------------------------|
--------------------------------------|


  S E.  T E  T E.  E  E  T T T T  
--1-----1-------------1------1---|
---------------1---3-----3-------|
---------------------------------|
---------------------------------|


  S E.  S. T S S H         
--3-----3----1-3----------|
--6-----------------------|
--------------------------|
--------------------------|


  S E.  T E  T E  S. E.  T T T T T  
--3-----3------3--3--------3---1---|
-----------------------------------|
-----------------------------------|
-----------------------------------|


  S E.  T E  T E  T T S. T T S. S S  
--3-----3------3--L---6----3----6-3-|
------------------------------------|
------------------------------------|
------------------------------------|


  S Q    S T T T S. T T E  S. T E   
--1--------1---1----1-----------1--|
------------------------1--3-------|
-----------------------------------|
-----------------------------------|


  S. E  T S E  S Q.     T T T T  
--3-------3----3--------3---3---|
--------------------------------|
--------------------------------|
--------------------------------|


  T S. T S. T S. T T E.  E  E  S S  
-----------------------------------|
--3----3----3----3---3---1-----1---|
----------------------------3----3-|
-----------------------------------|


  S E.  E  S S Q    E  E   
--3-----3--1-----------0--|
-------------4------3-----|
-------------8------------|
--------------------------|


  S E.  S. T S S Q    E  E   
--1-----1----0--------------|
---------------1------1-----|
----------------------------|
----------------------------|


  S Q    S T T T S. T T S E.  S S  
--3--------3---3----3---3-----3-3-|
----------------------------------|
----------------------------------|
----------------------------------|


  E  T S. S S T T T S. T S. S. S. S S  
-----3----3---3---1----1----1-----3-3-|
--------------------------------------|
--------------------------------------|
--------------------------------------|


  Q    S S T T S S T T S. T S E.   
-------3---3---3---3---1----3-----|
----------------------------------|
----------------------------------|
----------------------------------|


  S S T S. T S. T T S S S E  S. E  T  
--3---3----3----3---3---3-1--3-------|
-------------------------------------|
-------------------------------------|
-------------------------------------|


  S Q    S T T T S. T T S E.  S S  
--3--------3---3----3---3-----3-3-|
----------------------------------|
----------------------------------|
----------------------------------|


  E  T S. S S T T T S. T S. S. S. S S  
-----3----3---3---1----1----1-----3-3-|
--------------------------------------|
--------------------------------------|
--------------------------------------|


  Q    S S T T S S T T S. T S E.   
-------3---3---3---3---1----3-----|
----------------------------------|
----------------------------------|
----------------------------------|


  S S T S. T S. T T S S S E  S. E  T  
--3---3----3----3---3---3-1--3-------|
-------------------------------------|
-------------------------------------|
-------------------------------------|


  S E.  T E  T E.  E  E  T T T T  
--1-----1-------------1------1---|
---------------1---3-----3-------|
---------------------------------|
---------------------------------|


  S E.  T E  T E.  E  E  T T T T  
--1-----1-------------1------1---|
---------------1---3-----3-------|
---------------------------------|
---------------------------------|


  S E.  T E  T E.  E  E  T T T T  
--1-----1-------------1------1---|
---------------1---3-----3-------|
---------------------------------|
---------------------------------|


  S E.  T E  T E.  E  E  T T T T  
--1-----1-------------1------1---|
---------------1---3-----3-------|
---------------------------------|
---------------------------------|


  S Q    S T T T S. T T S E.  S S  
--3--------3---3----3---3-----3-3-|
----------------------------------|
----------------------------------|
----------------------------------|


  E  T S. S S T T T S. T S. S. S. S S  
-----3----3---3---1----1----1-----3-3-|
--------------------------------------|
--------------------------------------|
--------------------------------------|


  Q    S S T T S S T T S. T S E.   
-------3---3---3---3---1----3-----|
----------------------------------|
----------------------------------|
----------------------------------|


  S S T S. T S. T T S S S E  S. E  T  
--3---3----3----3---3---3-1--3-------|
-------------------------------------|
-------------------------------------|
-------------------------------------|


  T S. T S. T S. T T E.  E  E  S S  
-----------------------------------|
--3----3----3----3---3---1-----1---|
----------------------------3----3-|
-----------------------------------|


  T S. T S. T S. T T E.  E  E  S S  
-----------------------------------|
--3----3----3----3---3---1-----1---|
----------------------------3----3-|
-----------------------------------|


  T S. T S. T S. T T E.  E  E  S S  
-----------------------------------|
--3----3----3----3---3---1-----1---|
----------------------------3----3-|
-----------------------------------|


  T S. T S. T S. T T E.  E  E  S S  
-----------------------------------|
--3----3----3----3---3---1-----1---|
----------------------------3----3-|
-----------------------------------|


  S Q    S T T T S. T T S E.  S S  
--3--------3---3----3---3-----3-3-|
----------------------------------|
----------------------------------|
----------------------------------|


  E  T S. S S T T T S. T S. S. S. S S  
-----3----3---3---1----1----1-----3-3-|
--------------------------------------|
--------------------------------------|
--------------------------------------|


  Q    S S T T S S T T S. T S E.   
-------3---3---3---3---1----3-----|
----------------------------------|
----------------------------------|
----------------------------------|


  S S T S. T S. T T S S S E  S. E  T  
--3---3----3----3---3---3-1--3-------|
-------------------------------------|
-------------------------------------|
-------------------------------------|


  S E.  T S. E.  T T E  T E.  T  
--3-----3----3---L---1--3-------|
--------------------------------|
--------------------------------|
--------------------------------|


  T S. T S. S. T S. Q    T S. T S T T  
--3----3----3----3---------3----6-3---|
-----------------6--------------------|
--------------------------------------|
--------------------------------------|


  S E.  T E  T E.  E  E  T T T T  
--1-----1-------------1------1---|
---------------1---3-----3-------|
---------------------------------|
---------------------------------|


  S E.  S. T S S H         
--3-----3----1-3----------|
--6-----------------------|
--------------------------|
--------------------------|


  S E.  T E  T E  S. E.  T T T T T  
--3-----3------3--3--------3---1---|
-----------------------------------|
-----------------------------------|
-----------------------------------|


  S E.  T E  T E  T T S. T T S. S S  
--3-----3------3--L---6----3----6-3-|
------------------------------------|
------------------------------------|
------------------------------------|


  S Q    S T T T S. T T E  S. T E   
--1--------1---1----1-----------1--|
------------------------1--3-------|
-----------------------------------|
-----------------------------------|


  S. E  T S E  S Q.     T T T T  
--3-------3----3--------3---3---|
--------------------------------|
--------------------------------|
--------------------------------|


  T S. T S. T S. T T E.  E  E  S S  
-----------------------------------|
--3----3----3----3---3---1-----1---|
----------------------------3----3-|
-----------------------------------|


  S E.  E  S S Q    E  E   
--3-----3--1-----------0--|
-------------4------3-----|
-------------8------------|
--------------------------|


  S E.  S. T S S Q    E  E   
--1-----1----0--------------|
---------------1------1-----|
----------------------------|
----------------------------|


  S Q    S T T T S. T T S E.  S S  
--3--------3---3----3---3-----3-3-|
----------------------------------|
----------------------------------|
----------------------------------|


  E  T S. S S T T T S. T S. S. S. S S  
-----3----3---3---1----1----1-----3-3-|
--------------------------------------|
--------------------------------------|
--------------------------------------|


  Q    S S T T S S T T S. T S E.   
-------3---3---3---3---1----3-----|
----------------------------------|
----------------------------------|
----------------------------------|


  S S T S. T S. T T S S S E  S. E  T  
--3---3----3----3---3---3-1--3-------|
-------------------------------------|
-------------------------------------|
-------------------------------------|


  S E.  E  S S Q    E  E   
--3-----3--1-----------0--|
-------------4------3-----|
-------------8------------|
--------------------------|


  S E.  S. T S S Q    E  E   
--1-----1----0--------------|
---------------1------1-----|
----------------------------|
----------------------------|


  S Q    S T T T S. T T S E.  S S  
--3--------3---3----3---3-----3-3-|
----------------------------------|
----------------------------------|
----------------------------------|


  E  T S. S S T T T S. T S. S. S. S S  
-----3----3---3---1----1----1-----3-3-|
--------------------------------------|
--------------------------------------|
--------------------------------------|


  Q    S S T T S S T T S. T S E.   
-------3---3---3---3---1----3-----|
----------------------------------|
----------------------------------|
----------------------------------|


  S S T S. T S. T T S S S E  S. E  T  
--3---3----3----3---3---3-1--3-------|
-------------------------------------|
-------------------------------------|
-------------------------------------|


  S Q    S T T T S. T T S E.  S S  
--3--------3---3----3---3-----3-3-|
----------------------------------|
----------------------------------|
----------------------------------|


  E  T S. S S T T T S. T S. S. S. S S  
-----3----3---3---1----1----1-----3-3-|
--------------------------------------|
--------------------------------------|
--------------------------------------|


  Q    S S T T S S T T S. T S E.   
-------3---3---3---3---1----3-----|
----------------------------------|
----------------------------------|
----------------------------------|


  S S T S. T S. T T S S S E  S. E  T  
--3---3----3----3---3---3-1--3-------|
-------------------------------------|
-------------------------------------|
-------------------------------------|


  S E.  T E  T E.  E  E  T T T T  
--1-----1-------------1------1---|
---------------1---3-----3-------|
---------------------------------|
---------------------------------|


  S E.  T E  T E.  E  E  T T T T  
--1-----1-------------1------1---|
---------------1---3-----3-------|
---------------------------------|
---------------------------------|


  S E.  T E  T E.  E  E  T T T T  
--1-----1-------------1------1---|
---------------1---3-----3-------|
---------------------------------|
---------------------------------|


  S E.  T E  T E.  E  E  T T T T  
--1-----1-------------1------1---|
---------------1---3-----3-------|
---------------------------------|
---------------------------------|


  S Q    S T T T S. T T S E.  S S  
--3--------3---3----3---3-----3-3-|
----------------------------------|
----------------------------------|
----------------------------------|


  E  T S. S S T T T S. T S. S. S. S S  
-----3----3---3---1----1----1-----3-3-|
--------------------------------------|
--------------------------------------|
--------------------------------------|


  Q    S S T T S S T T S. T S E.   
-------3---3---3---3---1----3-----|
----------------------------------|
----------------------------------|
----------------------------------|


  S S T S. T S. T T S S S E  S. E  T  
--3---3----3----3---3---3-1--3-------|
-------------------------------------|
-------------------------------------|
-------------------------------------|


  T S. T S. T S. T T E.  E  E  S S  
-----------------------------------|
--3----3----3----3---3---1-----1---|
----------------------------3----3-|
-----------------------------------|


  T S. T S. T S. T T E.  E  E  S S  
-----------------------------------|
--3----3----3----3---3---1-----1---|
----------------------------3----3-|
-----------------------------------|


  T S. T S. T S. T T E.  E  E  S S  
-----------------------------------|
--3----3----3----3---3---1-----1---|
----------------------------3----3-|
-----------------------------------|


  T S. T S. T S. T T E.  E  E  S S  
-----------------------------------|
--3----3----3----3---3---1-----1---|
----------------------------3----3-|
-----------------------------------|


  W                   W                 
-------------------|-------------------|
-------------------|-------------------|
-------------------|-------------------|
-------------------|-------------------|


  W                   W                 
-------------------|-------------------|
-------------------|-------------------|
-------------------|-------------------|
-------------------|-------------------|


  S Q    S T T T S. T T S E.  S S  
--3--------3---3----3---3-----3-3-|
----------------------------------|
----------------------------------|
----------------------------------|


  E  T S. S S T T T S. T S. S. S. S S  
-----3----3---3---1----1----1-----3-3-|
--------------------------------------|
--------------------------------------|
--------------------------------------|


  Q    S S T T S S T T S. T S E.   
-------3---3---3---3---1----3-----|
----------------------------------|
----------------------------------|
----------------------------------|


  S S T S. T S. T T S S S E  S. E  T       
--3---3----3----3---3---3-1--3-------|----|
-------------------------------------|----|
-------------------------------------|----|
-------------------------------------|----|



Share "Dont Go" by Yaz


TOP 10 TABS

FRESH NEW TABS

ALL ARTISTS
artist wiki

mp3bear.com
song lyrics / contact us / privacy policy / tabspace toolbar
Copyright 2004 - 2014 TabSpace.com - All Rights Reserved.
song: dont go bass tabs by yaz

0.017