:: Guitar & Bass Tabs Make Home Page
A B C D E F G H I J K L M N O P Q R S T U V W X Y Z #

  for    

On TABSPACE
Info About This Tab
Artist: Tokio Hotel
Tab Type: Bass
Difficulty: novice
Rate This Tab!
INTRO:
G|---------|-------------|   X2
D|---------|-------------|
A|-4~------|-------------|
E|-------0-|-5~---7~-----|

VERSE:
G|--------|---------|----------|---------|---------|----------|---------|---------------|
D|--------|---------|----------|---------|---------|----------|---------|---------------|
A|-4~-----|---------|-4~-------|---------|-4~------|----------|-4~------|---------------|
E|------0-|-5~--7~--|--------0-|-5~--7~--|-------0-|-5~--7~---|---------|2-2-2-2-2-2-2--|

PRE-CHORUS:
G|---------|
D|---------|
A|---------|
E|-2-2-2---|

CHORUS:
G|-----------|-----------|-----------|-----------|-----------|-----------|-----------|-----------|
D|-----------|-----------|-----------|-----------|-----------|-----------|-----------|-----------|
A|-----------|-----------|-----------|-----------|-----------|-----------|-----------|-----------|
E|-5-5-5-5-5-|-5-5-5-5-5-|-7-7-7-7-7-|-7-7-7-7-7-|-4-4-4-4-4-|-4-4-4-4-4-|-4-4-4-4-4-|-4-4-4-4-4-|
 X2

G|-----------|-----------|-----------|-----------|-------------|---|
D|-----------|-----------|-----------|-----------|-------------|---|
A|-----------|-----------|-----------|-----------|-------------|---|
E|-5-5-5-5-5-|-5-5-5-5-5-|-7-7-7-7-7-|-7-7-7-7-7-|-2-2-2-2-2-2-|-5~|

PRE-VERSE:
G|--------|-----------|
D|--------|-----------|
A|-4~-----|-----------|
E|-------0|-5~---7~---|

VERSE
G|-------|---------|----------|------------|---------|----------|--------|---------------|
D|-------|---------|----------|------------|---------|----------|--------|---------------|
A|4~-----|---------|-4~-------|------------|-4~------|----------|-4~-----|---------------|
E|------0|-5~--7~--|---------0|-5~--7~-----|--------0|-5~--7~---|--------|2-2-2-2-2-2-2--|

PRE-CHORUS:
G|-------|
D|-------|
A|-------|
E|-2-2-2-|

CHORUS:
G|-----------|-----------|-----------|-----------|-----------|-----------|-----------|-----------|
D|-----------|-----------|-----------|-----------|-----------|-----------|-----------|-----------|
A|-----------|-----------|-----------|-----------|-----------|-----------|-----------|-----------|
E|-5-5-5-5-5-|-5-5-5-5-5-|-7-7-7-7-7-|-7-7-7-7-7-|-4-4-4-4-4-|-4-4-4-4-4-|-4-4-4-4-4-|-4-4-4-4-4-|
 X2

G|-----------|-----------|-----------|-----------|-------------|-----------|----------|
D|-----------|-----------|-----------|-----------|-------------|-----------|----------|
A|-----------|-----------|-----------|-----------|-------------|-----------|----------|
E|-5-5-5-5-5-|-5-5-5-5-5-|-7-7-7-7-7-|-7-7-7-7-7-|-2-2-2-2-2-2-|-5-5-5-5-5-|5-5-5-5-5-|

INTERLUDE:

G|-----------|-----------|-----------|-----------|
D|-----------|-----------|-----------|-----------|
A|-----------|-----------|-----------|-----------|
E|-5-5-5-5-5-|-5-5-5-5-5-|-7-7-7-7-7-|-7-7-7-7-7-|

G|-----------|------------|-----------|-----------|--------|-------|-----|   X4
D|-----------|------------|-----------|-----------|--------|-------|-----|
A|-4-4-4-4---|-4-4-4-4----|-4-4-4-4---|-4-4-------|--------|-------|-----|
E|-----------|------------|-----------|---------5-|5-5-5-5-|5-5-5-5|7-7--|

G|-----------|------------|-----------|-------------|
D|-----------|------------|-----------|-------------|
A|-4-4-4-4---|-4-4-4-4----|-4-4-4-4---|-4-4---------|
E|-----------|------------|-----------|----------5~-|

PRE-CHORUS:
G|---------------|--------|
D|---------------|--------|
A|---------------|--------|
E|2-2-2-2-2-2-2--|-2-2-2--|

CHORUS:
G|-----------|-----------|-----------|-----------|-----------|-----------|-----------|-----------|
D|-----------|-----------|-----------|-----------|-----------|-----------|-----------|-----------|
A|-----------|-----------|-----------|-----------|-----------|-----------|-----------|-----------|
E|-5-5-5-5-5-|-5-5-5-5-5-|-7-7-7-7-7-|-7-7-7-7-7-|-4-4-4-4-4-|-4-4-4-4-4-|-4-4-4-4-4-|-4-4-4-4-4-|
 X2

G|-----------|-----------|-----------|-----------|-------------|-----------|----------|
D|-----------|-----------|-----------|-----------|-------------|-----------|----------|
A|-----------|-----------|-----------|-----------|-------------|-----------|----------|
E|-5-5-5-5-5-|-5-5-5-5-5-|-7-7-7-7-7-|-7-7-7-7-7-|-2-2-2-2-2-2-|-5-5-5-5-5-|5-5-5-5-5-|

G|-----------|-----------|-----------|-----------|-------|-------|----|-----|-----|-----|
D|-----------|-----------|-----------|-----------|-------|-------|----|-----|-----|-----|
A|-----------|-----------|-----------|-----------|-------|-------|----|-----|-----|4~---|
E|-5-5-5-5-5-|-5-5-5-5-5-|-7-7-7-7-7-|-7-7-7-7-7-|-2-2-2-|-2-2-2-|-5~-|~----|-----|-----|

sorry if it's not perfect x) done by ear & watching a cover.


Share "Dont Jump" by Tokio Hotel


TOP 10 TABS

FRESH NEW TABS

ALL ARTISTS
artist wiki

mp3bear.com
song lyrics / contact us / privacy policy / tabspace toolbar
Copyright 2004 - 2014 TabSpace.com - All Rights Reserved.
song: dont jump bass tabs by tokio hotel

0.203