:: Guitar & Bass Tabs Make Home Page
A B C D E F G H I J K L M N O P Q R S T U V W X Y Z #

  for    

On TABSPACE
Info About This Tab
Artist: Misc Television
Tab Type: Guitar
Rate This Tab!
Dragonball GT American opening theme
Ok, so I've been trying to find this tab for a while.  I've not been able
to find it, instead I find the other theme, I think from the Japanese
show.  At any rate, I decided to tab it out by ear myself, and I did.  Now 
I bring it to you, for your enjoyment, as well as mine!  Now, I'm no 
musical expert, in fact, I've been playing for a little more than a month.  
I've gotten very good, though, for how short a time I've played, and I 
believe that this tab is just about dead on correct!  If there are a few 
mistakes, feel free to fix them for yourself, or let me know.  Hope you 
enjoy this

LEGEND:
(x#) =Tells how many times to play the sequence in a row
{ = Pinch Harmonic
~ = Vibrato

Intro/Chorus "Step into the grand tour, Dragonball GT!"
e|-----------------| For intro: Repeat x2
B|-----------------|
G|-----------------|
D|-----------------| For Chorus: Repeat x2, pause for vocals, repeat x2
A|2222-3-2--22223--|
E|0000-1-0--00001--|

Verse's
e|---------------------------------|
B|---------------------------------|
G|---------------------------------|
D|---------------------------------|
A|---------------------------------|
E|-0000-1-0--00001--0----(7654)----|
                          (x3)

e|---------------------------------------|
B|---------------------------------------|
G|---------------------------------------|
D|--------------------------------{7~----|
A|------------------------------5~-------|
E|-0000-1-0--00001--0----(7654)----------|
                          (x2)

e|----------------------------------------------|
B|----------------------------------------------|
G|---------------------------------{8~-{7~------|
D|----------------------------------------------|
A|----------------------------------------------|
E|-0000-1-0--00001--0----(7654)-----------------|
                          (x1)

e|---------------------------------|
B|---------------------------------|
G|---------------------------------|
D|---------------------------------|
A|---------------------------------|
E|-0000-1-0--00001--0----(7654)----|
                          (x3)
Hope you enjoy!

Tabbed by: Henri Angel aka Jeremy Henri


Share "Dragonball - Gt American" by Misc Television


TOP 10 TABS

FRESH NEW TABS

ALL ARTISTS
artist wiki

mp3bear.com
song lyrics / contact us / privacy policy / tabspace toolbar
Copyright 2004 - 2014 TabSpace.com - All Rights Reserved.
song: dragonball - gt american guitar tabs by misc television

0.012