:: Guitar & Bass Tabs Make Home Page
A B C D E F G H I J K L M N O P Q R S T U V W X Y Z #

  for    

On TABSPACE
Info About This Tab
Artist: Mobile
Tab Type: Bass
Difficulty: novice
Rate This Tab!
Tabbed By : Yanusun
e-mail: kylemk@jedcor.com

Tuning: Standard

Here’s my first bass tab of many more to come, I hope it fills your needs. Please 
do me a favor by letting me know about any mistakes you find.
P.S. The held notes found at the end of some sequences are optional depending
on how you want it to sound.

Come in at 0:21

G|---------------------------------------------------------------------------|
D|------------------------2222222222222244----------------2~-----------------|
A|2222222222222222------------------------2222222222222222-------------------|
E|----------------44444444---------------------------------------------------|

Short break, back in at 0:52

G|---------------------------------------------------------------------------|
D|2~--4~---------------------------------------------------------------------|
A|--------2222222222222222---------------------------------------------------|
E|------------------------2222222222222222-----------------------------------|

G|---------------------------------------------------------------------------|
D|---------------------------------------------------------------------------|
A|----------------2222222222222222----------------2222222222222211-----------|
E|0000000000000222----------------0000000000000222----------------4~---------|

Another brief pause, back at 1:38

G|----------------------------------------| x3 (* on last time)
D|--------2222222222222224----------------|
A|------------------------2222222222222211|
E|44444444--------------------------------4~*|

One more break, back at 2:28

G|---------------------------------------------------------------------------|
D|2--------------------------------------------------------------------------|
A|--2---------2222222222222222-----------------------------------------------|
E|----00002222----------------2222222222222222-------------------------------|

G|---------------------------------------------------------------------------|
D|2222222222222244----------------2222222222222244---------------------------|
A|----------------2222222222222222----------------2222222222222211-----------|
E|---------------------------------------------------------------------------|

G|---------------------------------------------------------------------------|
D|--------2222222222222222---------------------------------------------------|
A|------------------------2222222222222244-----------------------------------|
E|44444444-------------------------------------------------------------------|

G|---------------------------------------------------------------------------|
D|2222222222222244----------------2222222222224444---------------------------|
A|----------------2222222222222244----------------2222222222222211-----------|
E|---------------------------------------------------------------------------|

G|------------------------------------------------4~-------------------------|
D|--------22222222----------------2222222222222244---------------------------|
A|----------------2222222222222222-------------------------------------------|
E|44444444-------------------------------------------------------------------|


| /  slide up
| \  slide down
| h  hammer-on
| p  pull-off
| ~  vibrato
| +  harmonic
| x  Mute note
===============================================================================



Share "Dusting Down The Stars" by Mobile


TOP 10 TABS

FRESH NEW TABS

ALL ARTISTS
artist wiki

mp3bear.com
TabSpace.com / contact us / privacy policy / tabspace toolbar
Copyright © 2004 - 2016 TabSpace.com - All Rights Reserved.
song: dusting down the stars bass tabs by mobile

0.004