:: Guitar & Bass Tabs Make Home Page
A B C D E F G H I J K L M N O P Q R S T U V W X Y Z #

  for    

On TABSPACE
Info About This Tab
Artist: 30 Seconds To Mars
Tab Type: Guitar
Difficulty: novice
Rate This Tab!
Artist: 30 Seconds to Mars
Song: Edge of the Earth
Album: 30 Seconds to Mars
Tabbed by: StarChild
web: www.30secondstomarsmex.tk
 

Tuning (From low to high) CGCFAD

Intro - Guitar 1
*Listen to album for strumming pattern
|---------------------------------------------------------------|
|---------------------------------------------------------------|
|---------------------------------------------------------------|
|----5-6----8-10----5-6----3-8-1--------------------------------|
|----5-6----8-10----5-6----3-8-1--------------------------------|
|----5-6----8-10----5-6----3-8-1--------------------------------|

 

Intro - guitar 2 (w/chorus)
|---------------------------------------------------------------|
|-------------------13----------------------------13------------|
|----14----15p14-------------------14----15p14------------------|
|-12----12-------12-------------12----12-------12---------------|
|---------------------------------------------------------------|
|---------------------------------------------------------------|

|---------------------------------------------------------------|
|---------------------------------------------------------------|
|----14----15p14----12----14----15p14----10---------------------|
|-12----12-------12----12----12-------10------------------------|
|---------------------------------------------------------------|
|---------------------------------------------------------------|

 

Play intro - Guitar 2 again with guitar fill at the end
Guitar fill at end of 2nd playing of Intro - guitar 2
|---------------------------------------------------------------|
|---------------------------------------------------------------|
|-------------12----10------------------------------------------|
|-------12------------------------------------------------------|
|----10----10----10---------------------------------------------|
|---------------------------------------------------------------|

 

Verse - guitar 2
*Listen to album for strumming pattern
|---------------------------------------------------------------|
|---------------------------------------------------------------|
|------------------10-12----------------------------------------|
|----12-13-15-10-8-x--x-----------------------------------------|
|----10-11-13-8--6-8--10----------------------------------------|
|---------------------------------------------------------------|

 

Chorus - guitar 1
|---------------------------------------------------------------|
|---------------------------------------------------------------|
|---------------------------------------------------------------|
|---------------------------------------------------------------|
|---------------------------------------------------------------|
|-5-556-5556-556-5-556-555-5556---------------------------------|

|---------------------------------------------------------------|
|---------------------------------------------------------------|
|---------------------------------------------------------------|
|---------------------------------------------------------------|
|--------------------------6-5----------------------------------|
|-5-556-5556-556-5-556-555-----6-5-3----------------------------|

|---------------------------------------------------------------|
|---------------------------------------------------------------|
|---------------------------------------------------------------|
|---------------------------------------------------------------|
|---------------------------------------------------------------|
|-5-556-5556-556-5-556-555-5556---------------------------------|

|---------------------------------------------------------------|
|---------------------------------------------------------------|
|---------------------------------------------------------------|
|-----------------8-3-6-----------------------------------------|
|-----------------8-3-6-----------------------------------------|
|-5-556-5556-556--8-3-6-----------------------------------------|

 

Chorus - guitar 2 (with Delay)
*strumming in 16th notes
|------10----11----8----13----10----11----8----13---------------|
|------x-----x-----x----x-----x-----x-----x----x----------------|
|------7-----8-----5----10----7-----8-----5----10---------------|
|---------------------------------------------------------------|
|---------------------------------------------------------------|
|---------------------------------------------------------------|

 

Chorus - guitar 1
*Listen to album for strumming pattern
|---------------------------------------------------------------|
|---------------------------------------------------------------|
|---------------------------------------------------------------|
|----5----8---0----3----5----8----0----5----7-------------------|
|----5----8---0----3----5----8----0----3----5-------------------|
|----5----8---0----3----5----8----0-----------------------------|

 

Chorus 2 - guitar 2
|---------------------------------------------------------------|
|---------------------------------------------------------------|
|----12----10----8----7----12----10----8----15------------------|
|---------------------------------------------------------------|
|---------------------------------------------------------------|
|---------------------------------------------------------------|

 

Intro with variations - guitar 1 with intro - guitar 2 in background
*Listen to album for strumming pattern
|---------------------------------------------------------------|
|---------------------------------------------------------------|
|---------------------------------------------------------------|
|----5-6--10--8--6--5-6--3--8--1--------------------------------|
|----5-6--8---6--6--5-6--3--8--1--------------------------------|
|----5-6---------6--5-6--3--8--1--------------------------------|

 

Chorus w/ variations w/ chorus - guitar 2 (w/ delay) /w variations
|---------------------------------------------------------------|
|---------------------------------------------------------------|
|---------------------------------------------------------------|
|---------------------------------------------------------------|
|---------------------------------------------------------------|
|----5-556-5556-556-5-556-555-5556------------------------------|

|---------------------------------------------------------------|
|---------------------------------------------------------------|
|---------------------------------------------------------------|
|---------------------------------------------------------------|
|--------------------------6-5----------------------------------|
|-5-556-5556-556-5-556-555-----6-5-3----------------------------|

|---------------------------------------------------------------|
|---------------------------------------------------------------|
|---------------------------------------------------------------|
|---------------------------------------------------------------|
|---------------------------------------------------------------|
|----5-556-5556-556-5-556-555-5556------------------------------|

|---------------------------------------------------------------|
|---------------------------------------------------------------|
|---------------------------------------------------------------|
|--------------------10\----------------------------------------|
|--------------------10\----------------------------------------|
|----5-556-5556-556--10\----------------------------------------| 

 

Chorus - guitar 2 (with delay) with variations
*Strumming in 16th notes
|------10----11----8----13----10----11----8---------------------|
|------x-----x-----x----x-----x-----x-----x---------------------|
|------7-----8-----5----10----7-----8-----5---------------------|
|---------------------------------------------------------------|
|---------------------------------------------------------------|
|---------------------------------------------------------------|

 

Chorus - guitar 1 w/ chorus 2 - guitar 2 in the background
*Listen to album for strumming pattern
|--------|---------|-------|------------------------------------|
|--------|---------|-------|------------------------------------|
|--------|---------|-------|------------------------------------|
|-5-8-0-3|5-8-0-5-7|5-8-0-3|5-8-10-13-12------------------------|
|-5-8-0-3|5-8-0-3-5|5-8-0-3|5-8-10-13-12------------------------|
|-5-8-0-3|5-8-0----|5-8-0-3|5-8-10-13-12------------------------| 

 

Bridge - guitars 1 and 2
|---------------------------------------------------------------|
|---------------------------------------------------------------|
|---------------------------------------------------------------|
|------10--------9--------12--------10--------10--------9-------|
|--0-0-8-----0-0-7----0-0-10----0-0-10----0-0-8-----0-0-7-------|
|--0-0-------0-0------0-0-------0-0-10----0-0-------0-0---------|

 

Melody - guitar 2 (with chorus and delay)
|---------------------------------------------------------------|
|------------13----15p13----------------------------------------|
|---------14----14-------14-------------------------------------|
|------12-------------------------------------------------------|
|---------------------------------------------------------------|
|---------------------------------------------------------------|

 

Chorus 2 w/ more variations - guitar 1 w/ melody - guitar 2 (w/ chorus
and delay) in background
|-------------|----------|-----------|--------------------------|
|-------------|----------|-----------|--------------------------|
|-------------|----------|-----------|--------------------------|
|-5----5-8-0-3|5-8-0-5-3-|5-8-0-3-1-4|5-8-10-13-12--------------|
|-5----5-8-0-3|5-8-0-3-1-|5-8-0-3-1-2|5-8-10-13-12--------------|
|-5----5-8-0-3|5-8-0-----|5-8-0-3-1--|5-8-10-13-12--------------|
  ^---Harmonics

Play intro - guitar 1 w/ intro - guitar 2 (w/ chorus)


Share "Edge Of The Earth" by 30 Seconds To Mars


TOP 10 TABS

FRESH NEW TABS

ALL ARTISTS
artist wiki

mp3bear.com
song lyrics / contact us / privacy policy / tabspace toolbar
Copyright 2004 - 2014 TabSpace.com - All Rights Reserved.
song: edge of the earth guitar tabs by 30 seconds to mars

0.024