:: Guitar & Bass Tabs Make Home Page
A B C D E F G H I J K L M N O P Q R S T U V W X Y Z #

  for    

On TABSPACE
Info About This Tab
Artist: Samsas Traum
Tab Type: Guitar
Difficulty: novice
Rate This Tab!
Intro
E------------------------------------------------------------------------|
B------------------------------------------------------------------------|
G------------------------------------------------------------------------|
D------------------------------------------------------------------------|
A---0-0-0----0-0-0----0---0-----0-0----0-0-0----0-0-0----0---0----0-0----|
E-3--------3--------3---3-----3-----3--------3--------3---3-----3--------|

play this through the hole song
Guitar 1
E------------------------------------------------------------------------|
B------------------------------------------------------------------------|
G----------------------------0--0--0--0--0--0--0--0----------------------|
D-2--2--2--2--2--2--2--2-------------------------------------------------|
A-0--0--0--0--0--0--0--0-----3--3--3--3--3--3--3--3----------------------|
E------------------------------------------------------------------------|

------------------------------------------------------------------------|
------------------------------------------------------------------------|
------------------------------------------------------------------------|
-0--0--0--0--0--0--0--0-------------------------------------------------|
----------------------------2--2--2--2--2--2--2--2----------------------|
-3--3--3--3--3--3--3--3-----0--0--0--0--0--0--0--0----------------------|


Fade in
(lead)Guitar 2
E-12--10--8--7--|
B---------------|
G---------------|
D---------------|
A---------------|
E---------------|

chorus and right after the intro
(lead)Guitar 2
E-5--7--8--10--8--12--10--8--10--8---------------------------|
B-----------------------------------8------------------------|
G------------------------------------------------------------|
D------------------------------------------------------------|
A------------------------------------------------------------|
E------------------------------------------------------------|

--5--7--8--10--8--12--10--8--12--17--17--15------15----------|
---------------------------------------------17-----17--17---|
-------------------------------------------------------------|
-------------------------------------------------------------|
-------------------------------------------------------------|
-------------------------------------------------------------|


Share "Ein Foetus Wie Du" by Samsas Traum


TOP 10 TABS

FRESH NEW TABS

ALL ARTISTS
artist wiki

mp3bear.com
song lyrics / contact us / privacy policy / tabspace toolbar
Copyright 2004 - 2014 TabSpace.com - All Rights Reserved.
song: ein foetus wie du guitar tabs by samsas traum

0.04