:: Guitar & Bass Tabs Make Home Page
A B C D E F G H I J K L M N O P Q R S T U V W X Y Z #

  for    

On TABSPACE
Info About This Tab
Artist: Misc Television
Tab Type: Guitar
Difficulty: intermediate
Rate This Tab!
This is one of my favorites from elfin lied :) hope you like it!!
The Tuning is BEADF#B (yeah i know but it still sounds cool)

            ^             ^              ^            v       
      E  E  E  E  E   E   E  E     E  E  E  E  E   E  E   E   
B ||-----9----------------------|-----9---------------7------|
F#||--7-----9--------10--10-----|--7-----9--------10-----10--|
D ||--------------6-------------|--------------6-------------|
A ||-----------6-------------7--|-----------6----------------|
E ||--------8-------------9-----|--------8------------9------|
B ||----------------------------|----------------------------|


  ^                          v                         
  E  E  E  E  E  E  E  E     E  E  E  E  E  E  E   E   
-----------------4--0-----|---------------------------|
--7--------------------3--|--5--------------7---------|
-----6--4--2--4-----------|-----4--------------7------|
--0-----------------------|--------7--6--8--------11--|
--------------------------|--4-----------9------------|
--------------------------|---------------------------|


  ^          ^                ^               ^           
  E  E  Q    E  E   E  E      E   E   E   E   Q    E  E   
-----------------------7--|---------------------------9--|
--------7----7--9--10-----|--10----------10---9----7-----|
--7--9--------------------|----------11------10----------|
--------------------------|------11----------11----------|
--------------------------|------------------------------|
--7----------8------------|---9---------------9----------|


  ^             v              ^            ^      ^      
  E  E  E   E   E  E  E  E     E  E  E   E  E   E  E  E   
-------------------------9--|---------------7------------|
--9--------10--10-----7-----|--9--------10-----10--7-----|
--------6-------------------|--------6----------------6--|
-----6-------------7--------|-----6----------------0-----|
--8-------------9-----------|--8------------9------------|
----------------------------|----------------------------|


                    ^                           ^      
  E  E  E  E  E  E  E  E     E  E  E  E  E   E  E  E   
-----------4--0-----------|------------------------7--|
-----------------3--5-----|-----------7---------------|
--4--2--4--------------4--|--------------7------7-----|
--------------------------|--7--6--8--------11--------|
--------------------4-----|--------9------------------|
--------------------------|---------------------7-----|


  ^     v      ^       ^                 ^      v      ^   
  E  E  E   E  E   E   E   E      E  E   E   E  E   E  E   
--5---------------------------|------9--10---------10--9--|
-----9--7-----------------11--|--12---------10--9---------|
-----------10--8--10--11------|------------------------9--|
------------------------------|----------9-------------7--|
---------------8-------9------|-----------------7---------|
--8-----9---------------------|---------------------------|


       ^            ^      ^                  ^                              
   E   E  E  E   E  E  E   E      E   E   E   E  Q       H.           E  E   
--12------9--8----------------|-----------------------|------------------9-|
------10-----7--10--9--7--10--|----------12---9--L----|--L------------7----|
-------------8----------------|------11------10--L----|--L-----------------|
-------------7----------------|--11----------11--L----|--L-----------------|
-------9----------------------|-----------------------|--------------------|
--------------------8------9--|---------------9--L----|--L-----------------|


  ^             ^              ^            ^      v      
  E  E  E   E   E  E  E  E     E  E  E   E  E   E  E  E   
-------------------------9--|---------------7------------|
--9--------10--10-----7-----|--9--------10-----10--7-----|
--------6-------------------|--------6----------------6--|
-----6-------------7--------|-----6----------------0-----|
--8-------------9-----------|--8------------9------------|
----------------------------|----------------------------|


                    ^                           ^      
  E  E  E  E  E  E  E  E     E  E  E  E  E   E  E  E   
-----------4--0-----------|------------------------7--|
-----------------3--5-----|-----------7---------------|
--4--2--4--------------4--|--------------7------7-----|
--------------------------|--7--6--8--------11--------|
--------------------4-----|--------9------------------|
--------------------------|---------------------7-----|


  ^     ^      ^       ^                ^              
  E  E  E   E  E   E   E  E      E   E  H.             
--5--------------------------|-----------------------||
-----9--7--------------------|----------2------------||
-----------10--8--10--11-----|----------2------------||
--------------------------9--|----------4------------||
---------------8-------9-----|--12--11---------------||
--8-----9--------------------|----------2------------||


Duration
---------------
W - whole
H - half
Q - quarter
E - 8th
S - 16th
T - 32nd
X - 64th
. - note dotted
|-n-|  - n-tuplets

Tablature
----------------
L - tied note
x - dead note



Share "Elfin Lied - Lilium" by Misc Television


TOP 10 TABS

FRESH NEW TABS

ALL ARTISTS
artist wiki

mp3bear.com
song lyrics / contact us / privacy policy / tabspace toolbar
Copyright 2004 - 2014 TabSpace.com - All Rights Reserved.
song: elfin lied - lilium guitar tabs by misc television

0.016