:: Guitar & Bass Tabs Make Home Page
A B C D E F G H I J K L M N O P Q R S T U V W X Y Z #

  for    

On TABSPACE
Info About This Tab
Artist: 30 Seconds To Mars
Tab Type: Guitar
Difficulty: intermediate
Rate This Tab!
Artist: 30 Seconds to Mars
Song: Fallen
Album: 30 Seconds to Mars
Tabbed by: StarChild
wbsite: www.30secondstomarsmex.tk
 

Tuning (From low to high) CGCFAD

Intro - guitars 1 and 2
*Listen to Album for strumming pattern
|---------------------------------------------------------------|
|---------------------------------------------------------------|
|---------------------------------------------------------------|
|--xx-8-6-8-10--10-12-0~---8~---0~---5/-------------------------|
|--xx-8-6-6-8---10-10-0~---8~---0~---5/-------------------------|
|--xx-8-6-------10----0~---8~---0~---5/-------------------------|

|---------------------------------------------------------------|
|---------------------------------------------------------------|
|---------------------------------------------------------------|
|-0~---8--xx--10-3--0~---5~---5\3--3\2--------------------------|
|-0~---8--xx--10-3--0~---5~---5\3--3\2--------------------------|
|-0~---8--xx--10-3--0~---5~---5\3--3\2--------------------------|

 

Verse - guitar 1
*Listen to album for strumming pattern
|---------------------------------------------------------------|
|---------------------------------------------------------------|
|---------------------------------------------------------------|
|--7-5-8-5------------------------------------------------------|
|--5-5-5-5------------------------------------------------------|
|---------------------------------------------------------------|
 PM throughout

 

Guitar Fill in verse - guitar 2 (with chorus)
|----10---------------------------------------------------------|
|-------10------------------------------------------------------|
|---------------------------------------------------------------|
|---------------------------------------------------------------|
|---------------------------------------------------------------|
|---------------------------------------------------------------| 

 

Chorus - guitars 1 and 2
*Listen to album for strumming pattern
|---------------------------------------------------------------|
|---------------------------------------------------------------|
|---------------------------------------------------------------|
|---10-----9------12------10\7------10----9----12---------------|
|-0-8----0-7----0-10----0-10\7-0----8-----7----10---------------|
|-0------0------0-------0-10\7-0--------------------------------|

|---------------------------------------------------------------|
|---------------------------------------------------------------|
|---------------------------------------------------------------|
|---10-----9------12------10\7------10----9----5----------------|
|-0-8----0-7----0-10----0-10\7-0----8-----7----3----------------|
|-0------0------0-------0-10\7-0--------------------------------|

|---------------------------------------------------------------|
|---------------------------------------------------------------|
|---------------------------------------------------------------|
|---10-----9------12------10\7-0----10----9----12---------------|
|-0-8----0-7----0-10----0-10\7-0----8-----7----10---------------|
|-0------0------0-------0-10\7-0--------------------------------|

|---------------------------------------------------------------|
|---------------------------------------------------------------|
|---------------------------------------------------------------|
|---10-----9------12------10\7-0--xx-10-xx-9-xx-10\8--7/8-10-0--|
|-0-8----0-7----0-10----0-10\7-0--xx-8--xx-7-xx-10\8--7/8-8--0--|
|-0------0------0-------0-10\7-0--xx----xx------10\8--7/8----0--|

 

Play Verse - guitar 1 w/ melody - guitar 2 (w/chorus) in the 
background.
Melody - guitar 2 (w/chours)
|---------------------------------------------------------------|
|---------------------------------------------------------------|
|----14----15----14----12---------------------------------------|
|-12----12----12----12----12-15---------------------------------|
|---------------------------------------------------------------|
|---------------------------------------------------------------|

|---------------------------------------------------------------|
|---------------------------------------------------------------|
|----14----15----14----12---------------------------------------|
|-12----12----12----12----12-14---------------------------------|
|---------------------------------------------------------------|
|---------------------------------------------------------------|

|---------------------------------------------------------------|
|---------------------------------------------------------------|
|----14----15----14----12---------------------------------------|
|-12----12----12----12----12-15---------------------------------|
|---------------------------------------------------------------|
|---------------------------------------------------------------|

|---------------------------------------------------------------|
|---------------------------------------------------------------|
|----------------------------12---------------------------------|
|----12----14----15----14---------------------------------------|
|-12----12----12----12----12------------------------------------|
|---------------------------------------------------------------|

 

Riff - guitars 1 and 2
Listen to album for strumming pattern
|---------------------------------------------------------------|
|---------------------------------------------------------------|
|---------------------------------------------------------------|
|----0~---8~---0~---5/------------------5-----------------------|
|----0~---8~---0~---5/----0-8-10-8-0----5-----------------------|
|----0~---8~---0~---5/----0-8-10-8-0----5-----------------------|
                        PM. . .. . .
                        Slowly release PM towards end and before
                        the last note.

 

First guitar fill during chorus - guitars 1 and 2
|---------------------------------------------------------------|
|---------------------------------------------------------------|
|---------10--9-------------------------------------------------|
|-5/7--9--8---7--10--9--10--------------------------------------|
|-3/5--7---------8---7--8---------------------------------------|
|---------------------------------------------------------------|

 

Melody 2 - guitar 2 (w/ chorus and distortion)
|---------------------------------------------------------------|
|-------------------------------------------10\-----------------|
|-----------10\-------------12\---------------------------------|
|--10h12-----------10h12-----------10h12------------------------|
|---------------------------------------------------------------|
|---------------------------------------------------------------|
*The song ends with this played instead of the following one.

 

|---------------------------------------------------------------|
|---------------------------------------------------------------|
|-----------10\-------------12\-------------10----9-------------|
|--10h12-----------10h12-----------10h12---------------12-------|
|---------------------------------------------------------------|
|---------------------------------------------------------------|

 

Second Guitar fill during chorus - guitars 1 and 2
|---------------------------------------------------------------|
|---------------------------------------------------------------|
|---------------------------------------------------------------|
|----------3----2----1----0-------------------------------------|
|----------3----2----1----0-------------------------------------|
|----------3----2----1----0-------------------------------------|
This is how the song ends.


Share "Fallen" by 30 Seconds To Mars


TOP 10 TABS

FRESH NEW TABS

ALL ARTISTS
artist wiki

mp3bear.com
song lyrics / contact us / privacy policy / tabspace toolbar
Copyright 2004 - 2014 TabSpace.com - All Rights Reserved.
song: fallen guitar tabs by 30 seconds to mars

0.02