:: Guitar & Bass Tabs Make Home Page
A B C D E F G H I J K L M N O P Q R S T U V W X Y Z #

  for    

On TABSPACE
Info About This Tab
Artist: Panda
Tab Type: Guitar
Difficulty: novice
Rate This Tab!
PXNDX---FASCINANTE / POETICS (acto 1/track 2)

intro
|-----------------------------------------------------------------|
|-----------------------------------------------------------------|
|-----------------------------------------------------------------|
|-8-8-8-8-8-8-8-8-2-2-2-2-2-2-2-2-4-4-4-4-4-4-4-4-6-6-6-6-6-6-6-6-|
|-6-6-6-6-6-6-6-6-4-4-4-4-4-4-4-4-2-2-2-2-2-2-2-2-4-4-4-4-4-4-4-4-|
|-6-6-6-6-6-6-6-6-2-2-2-2-2-2-2-2-2-2-2-2-2-2-2-2-4-4-4-4-4-4-4-4-|x2

verso (yo te contarel...)
|---1313--13----14-1414-------------|
|-11----11---11---------11----11----|
|--------------------------13----13-|
|-----------------------------------|
|-----------------------------------|
|-----------------------------------|x8

verso 2 (esta es la verdad...)
|-----------------------------------------|
|-----------------------------------------|
|-----------------------------------------|
|-8888-8888-2222-2222-4444-4444-6666-6666-|
|-6666-6666-4444-4444-2222-2222-4444-4444-|
|-6666-6666-2222-2222-2222-2222-4444-4444-|x2

coro (que increible es...)
|---------------------------------------------|
|---------------------------------------------|
|---------------------------------------------|
|-2222222222222222-6666666666666666--8---8--9-|
|-4444444444444444-4444444444444444-10--10-11-|
|-2222222222222222-4444444444444444--8---8--9-|x2

|-----------------------------------------------------------------|
|-----------------------------------------------------------------|
|-----------------------------------------------------------------|
|-8-8-8-8-8-8-8-8-2-2-2-2-2-2-2-2-4-4-4-4-4-4-4-4-6-6-6-6-6-6-6-6-|
|-6-6-6-6-6-6-6-6-4-4-4-4-4-4-4-4-2-2-2-2-2-2-2-2-4-4-4-4-4-4-4-4-|
|-6-6-6-6-6-6-6-6-2-2-2-2-2-2-2-2-2-2-2-2-2-2-2-2-4-4-4-4-4-4-4-4-|x2

verso (yo se que al finale...)
|---1313--13----14-1414-------------|
|-11----11---11---------11----11----|
|--------------------------13----13-|
|-----------------------------------|
|-----------------------------------|
|-----------------------------------|x8

verso 2 (fuerza una vez mas...)
|-----------------------------------------|
|-----------------------------------------|
|-----------------------------------------|
|-8888-8888-2222-2222-4444-4444-6666-6666-|
|-6666-6666-4444-4444-2222-2222-4444-4444-|
|-6666-6666-2222-2222-2222-2222-4444-4444-|x2

coro (que increible es...)
|---------------------------------------------|
|---------------------------------------------|
|---------------------------------------------|
|-2222222222222222-6666666666666666--8---8--9-|
|-4444444444444444-4444444444444444-10--10-11-|
|-2222222222222222-4444444444444444--8---8--9-|x2

solo
|----6-------------------------6--------------|
|-777-7-6-7-----------6-9-6-777-7-6-7---------|
|-------------6/8/6---------------------6/8/6-|
|---------------------------------------------|
|---------------------------------------------|
|---------------------------------------------|

coro que no se toca nada (que increible es...)

verso 2 (fuerza una vez mas...)
|-----------------------------------------------------------------|
|-----------------------------------------------------------------|
|-----------------------------------------------------------------|
|-8-8-8-8-8-8-8-8-2-2-2-2-2-2-2-2-4-4-4-4-4-4-4-4-6-6-6-6-6-6-6-6-|
|-6-6-6-6-6-6-6-6-4-4-4-4-4-4-4-4-2-2-2-2-2-2-2-2-4-4-4-4-4-4-4-4-|
|-6-6-6-6-6-6-6-6-2-2-2-2-2-2-2-2-2-2-2-2-2-2-2-2-4-4-4-4-4-4-4-4-| 

outro (puede ser fatal...) 
|-----------------------------------------------------------------|
|-----------------------------------------------------------------|
|-----------------------------------------------------------------|
|-8-8-8-8-8-8-8-8-2-2-2-2-2-2-2-2-4-4-4-4-4-4-4-4-6-6-6-6-6-6-6-6-|
|-6-6-6-6-6-6-6-6-4-4-4-4-4-4-4-4-2-2-2-2-2-2-2-2-4-4-4-4-4-4-4-4-|
|-6-6-6-6-6-6-6-6-2-2-2-2-2-2-2-2-2-2-2-2-2-2-2-2-4-4-4-4-4-4-4-4-|

letra :
[verso]
Yo te contare, soy la sencillez
Solo tengo un leve problema
Mucho desnivel ya me acostumbre
No hay rival que prometa
O que iguale mi superioridad
Hay que cuidar la belleza
Déjame encontrar una mascara
Y así hablar con franqueza

[verso 2]
Esta es la verdad
¿Cuanto faltara
Para la eternidad?
Quiero que aprendas
A poder valorar
Que te falto muy poco
Para ser estelar

[coro]
Que increíble es
Que no exista manera
Que en mi vida entera
Yo me pueda equivocar
Que increíble es
Tener control de todo
Que no exista modo
Que algo me pueda salir mal

[verso]
Yo se que al final de reflexionar
Si acaso alguien te extrañara
Te ofrezco seguridad
Pues a mi un poco mas de un centenar
No te aflijas yo estaré aquí
Llegare a salvar todo aquello
Que te hace pensar en mi
Y no confíes, no soy tan gentil

[verso 2]
Fuerza una vez más
Trata una vez más
De no enamorarte
Al pensar en mí
Al verme sonreír
No quiero que te espantes
No quiero ser hostil

[coro]
Que increíble es
Que no exista manera
Que en mi vida entera
Yo me pueda equivocar
Que increíble es
Tener control de todo
Que no exista modo
Que algo me pueda salir mal

[coro]
Que increíble es
Que no exista manera
Que en mi vida entera
Yo me pueda equivocar
Que increíble es
Tener control de todo
Que no exista modo
Que algo me pueda salir mal

[verso 2]
Fuerza una vez más
Trata una vez más
Que he de enamorarte
Al pensar en mí
Al verme sonreír
No quiero que te espantes
No quiero ser hostil

[outro]
Puede ser fatal
El solo una vez más
Tratar una vez más
De no enamorarte al pensar en mi
Al verme sonreír
No quiero que te espantes
No quiero ser hostil


Share "Fascinante" by Panda


TOP 10 TABS

FRESH NEW TABS

ALL ARTISTS
artist wiki

mp3bear.com
song lyrics / contact us / privacy policy / tabspace toolbar
Copyright © 2004 - 2014 TabSpace.com - All Rights Reserved.
song: fascinante guitar tabs by panda

0.012