:: Guitar & Bass Tabs Make Home Page
A B C D E F G H I J K L M N O P Q R S T U V W X Y Z #

  for    

On TABSPACE
Info About This Tab
Artist: Ian Brown
Tab Type: Guitar
Rate This Tab!

Artist: Ian Brown
Song: F.E.A.R 
Album: Music Of The Spheres
Tunning: standrd
Tabbed By: Indie Nation (Dan)

 
This rhythm version is based on the Arpeggio section - 
I would tab it out if I could hear it properly, please rate 

 ^ = Downstroke 
 v = Upstroke     
                            |           |
 Strumming Pattern: ^ v ^ v | v ^ v ^ v | v ^ v ^ v Repeat     
                            |           |
                                          A6 
 e|-5-5-5-5--5-4-4-4-4--4-4-4-4-4-|-4-4-4-4--4-2-2-2-2--2-2-2-2-2-|
 b|-2-2-2-2--2-2-2-2-2--2-2-2-2-2-|-2-2-2-2--2-2-2-2-2--2-2-2-2-2-|
 g|-2-2-2-2--2-2-2-2-2--2-2-2-2-2-|-2-2-2-2--2-2-2-2-2--2-2-2-2-2-|
 d|-4-4-4-4--4-4-4-4-4--4-4-4-4-4-|-2-2-2-2--2-2-2-2-2--2-2-2-2-2-|
 a|-------------------------------|-------------------------------|
 e|-------------------------------|-------------------------------|
   
 Constant fast picking (Tremolo Picking): 
 e|-5----------4--------------0---|-4----------2------------------|
 b|-5----------5--------------5---|-5----------5------------------|

    D/A                             Bm
 e|-2-2-2-2--2-2-2-2-2--2-2-2-2-2-|-2-2-2-2--2-2-2-2-2--2-2-2-2-2-|
 b|-3-3-3-3--3-3-3-3-3--3-3-3-3-3-|-3-3-3-3--3-3-3-3-3--3-3-3-3-3-|
 g|-2-2-2-2--2-2-2-2-2--2-2-2-2-2-|-4-4-4-4--4-4-4-4-4--4-4-4-4-4-|
 d|-0-0-0-0--0-0-0-0-0--0-0-0-0-0-|-4-4-4-4--4-4-4-4-4--4-4-4-4-4-|
 a|-0-0-0-0--0-0-0-0-0--0-0-0-0-0-|-2-2-2-2--2-2-2-2-2--2-2-2-2-2-|
 e|-------------------------------|-------------------------------|
  
 Constant fast picking (Tremolo Picking): 
 e|-2-----------------------------|-2-----------------------------|
 b|-3-----------------------------|-0-----------------------------|

 thats all i could figure out for now, please rate
 Cheers DAn
 


Share "Fear" by Ian Brown


TOP 10 TABS

FRESH NEW TABS

ALL ARTISTS
artist wiki

mp3bear.com
song lyrics / contact us / privacy policy / tabspace toolbar
Copyright 2004 - 2014 TabSpace.com - All Rights Reserved.
song: fear guitar tabs by ian brown

0.015