:: Guitar & Bass Tabs Make Home Page
A B C D E F G H I J K L M N O P Q R S T U V W X Y Z #

  for    

On TABSPACE
Info About This Tab
Artist: Tokio Hotel
Tab Type: Guitar
Difficulty: intermediate
Rate This Tab!
-----------------------------------------------------------------------------
                 Forever Now - Tokio Hotel
-----------------------------------------------------------------------------

Tabbed by:XxGuitarZer0xX

Email:Spongebobs400s@hotmail.com

Tuning:Standard
 

This is 100% correct, so have fun and enjoy!





Intro - Use phaser or flanger - This repeats many times through out the song
e|---------------------------------------------------|
B|---------------------------------------------------|
G|-66/4\6-6/4\6-6/4\6-6/4\6-66/4\6-6/4\6-6/4\6-6/4\6-|
D|-xx-x-x-x-x-x-x-x-x-x-x-x-xx-x-x-x-x-x-x-x-x-x-x-x-| Repeat until verse
A|-66/4\6-6/4\6-6/4\6-6/4\6-66/4\6-6/4\6-6/4\6-6/4\6-|
E|---------------------------------------------------|
 




Verse 1 - Easiest verse ever. just listen when to play it.
e|----------|
B|----------|
G|-------8~-|
D|---8---8~-| Repeat 6 times before chorus
A|-6---6-6~-|
E|----------|

Also there is a second and third guitar in there before the chorus, It is this.

e|-66666666-44444444-33333333-44444444--|
B|-44444444-44444444-44444444-44444444--|
G|--------------------------------------|
D|--------------------------------------|
A|--------------------------------------|
E|--------------------------------------|
I like to Palm Mute this. you don't have to though.
faded in the background
e|---------------------------------------------------|
B|---------------------------------------------------|
G|-66/4\6-6/4\6-6/4\6-6/4\6-66/4\6-6/4\6-6/4\6-6/4\6-|
D|-xx-x-x-x-x-x-x-x-x-x-x-x-xx-x-x-x-x-x-x-x-x-x-x-x-| Repeat until chorus
A|-66/4\6-6/4\6-6/4\6-6/4\6-66/4\6-6/4\6-6/4\6-6/4\6-|
E|---------------------------------------------------|





Chorus
e|-------------------------------------|
B|-------------------------------------|
G|----------------------------66666666-|
D|-99999999-66666666-44444444-66666666-| Repeat once more
A|-99999999-66666666-44444444-44444444-|
E|-77777777-44444444-22222222----------|
 





Intro repeats - Use phaser or flanger - This repeats many times through out the song
e|---------------------------------------------------|
B|---------------------------------------------------|
G|-66/4\6-6/4\6-6/4\6-6/4\6-66/4\6-6/4\6-6/4\6-6/4\6-|
D|-xx-x-x-x-x-x-x-x-x-x-x-x-xx-x-x-x-x-x-x-x-x-x-x-x-| Repeat until verse
A|-66/4\6-6/4\6-6/4\6-6/4\6-66/4\6-6/4\6-6/4\6-6/4\6-|
E|---------------------------------------------------|
 





Verse 2 - This is the only guitar part for the beginning of verse two
e|----|
B|----|
G|-88-|
D|-88-|
A|-66-|
E|----|

Then Play

e|----------------------------|
B|----------------------------|
G|----------------------------|
D|----------------------------|
A|-6666-8888-9999-11-11-11-11-|
E|----------------------------|
 





Chorus
e|-------------------------------------|
B|-------------------------------------|
G|----------------------------66666666-|
D|-99999999-66666666-44444444-66666666-| Repeat 3 more times
A|-99999999-66666666-44444444-44444444-|
E|-77777777-44444444-22222222----------|
 
 



Pre - Bridge - One guitar plays this
e|------------------------------------|
B|------------------------------------|
G|-8888888888888888888888888888888888-|
D|-8888888888888888888888888888888888-|
A|-6666666666666666666666666666666666-|
E|------------------------------------|
PM ********************************** (palm mute all these notes)


Another Guitar Plays this quietly
e|---------------------------------------------------|
B|---------------------------------------------------|
G|-66/4\6-6/4\6-6/4\6-6/4\6-66/4\6-6/4\6-6/4\6-6/4\6-|
D|-xx-x-x-x-x-x-x-x-x-x-x-x-xx-x-x-x-x-x-x-x-x-x-x-x-| Repeat until Bridge
A|-66/4\6-6/4\6-6/4\6-6/4\6-66/4\6-6/4\6-6/4\6-6/4\6-|
E|---------------------------------------------------|




Bridge - Guitar 1
e|-----------9-9------------------|
B|---7-7-------------7-7-----7-7--|
G|-6~-6-6--6~-6-6--6~-6-6--6~-4-4-|
D|--------------------------------| Repeat once more
A|--------------------------------|
E|--------------------------------|

Guitar 2
e|-------------|
B|-------------|
G|-4~-------6~-|
D|-4~-6~-4~-6~-| Repeat over and over during bridge.
A|-2~-6~-4~-4~-|
E|----4~-2~----|




Chorus
e|-------------------------------------|
B|-------------------------------------|
G|----------------------------66666666-|
D|-99999999-66666666-44444444-66666666-| Repeat 6 more times until outro
A|-99999999-66666666-44444444-44444444-|
E|-77777777-44444444-22222222----------|




Outro
e|-------------------------------------|
B|-------------------------------------|
G|-8888888888888888888888888888888888/-|
D|-8888888888888888888888888888888888/-|
A|-6666666666666666666666666666666666/-|
E|-------------------------------------|
PM ********************************** (palm mute all these notes)


Another Guitar Plays this quietly
e|---------------------------------------------------|
B|---------------------------------------------------|
G|-66/4\6-6/4\6-6/4\6-6/4\6-66/4\6-6/4\6-6/4\6-6/4\6-|
D|-xx-x-x-x-x-x-x-x-x-x-x-x-xx-x-x-x-x-x-x-x-x-x-x-x-| Repeat until end of song
A|-66/4\6-6/4\6-6/4\6-6/4\6-66/4\6-6/4\6-6/4\6-6/4\6-|
E|---------------------------------------------------|




There you go 100% correct, have fun and enjoy.


Share "Forever Now" by Tokio Hotel


TOP 10 TABS

FRESH NEW TABS

ALL ARTISTS
artist wiki

mp3bear.com
song lyrics / contact us / privacy policy / tabspace toolbar
Copyright 2004 - 2014 TabSpace.com - All Rights Reserved.
song: forever now guitar tabs by tokio hotel

0.01