:: Guitar & Bass Tabs Make Home Page
A B C D E F G H I J K L M N O P Q R S T U V W X Y Z #

  for    

On TABSPACE
Info About This Tab
Artist: Misc Television
Tab Type: Bass
Rate This Tab!
-------------------------------------------------------------------------------
	                        Freakazoid Theme
-------------------------------------------------------------------------------

Tabbed By : Tommy Robin
e-mail: ockeroid@hotmail.com

Tuning: Standard (EADG)

Great show. The theme works well on bass :)


[Main theme]

 Super-teen extraordinaire,      Freakazoid! Freakazoid!
|------------------------------|---------------------------|
|------------------------------|---------------------------|
|---------4-----7--6-4---------|---------------------------|
|---6--6-----6-----------------|--6--4-6------6--4-6-------|

 Runs around in underwear,       Freakazoid! Freakazoid!
|------------------------------|---------------------------|
|------------------------------|---------------------------|
|---------4-----7--6-4---------|---------------------------|
|---6--6-----6-----------------|--6--4-6------6--4-6-------|

 Rescues Washington D.C.        Freakazoid! Freakazoid!
|-----------------------------|--------------------------|
|--------4-----7--6-4---------|--------------------------|
|--6--6-----6-----------------|--6--4-6------6--4-6------|
|-----------------------------|--------------------------|

 Unless something better's on TV, Freakazoid! Freakazoid!  His
|------------------------------|---------------------------|
|------------------------------|---------------------------|
|---------4-----7--6-4---------|---------------------------|
|---6--6-----6-----------------|--6--4-6------6--4-6----6--|

 brain's overloading,    It has a chocolate coating
|--------------------------|-------------------------|
|--------------------------|-------------------------|
|--8--8--6--4-6---8--------|--7--7--6--4-------------|
|-----------------------6--|--------------6--4-------|

 Textbook case for Sigmund Freud, Freakazoid! Freakazoid!
|-----------------------------|--------------------------|
|-----------------------------|--------------------------|
|--------4-----7--6-4---------|--------------------------|
|--6--6-----6-----------------|--6--4-6------6--4-6------|


[Bridge]

 Check out Dexter Douglas,     Nerd computer ace     Went
|-----------------------------|--------------------------|
|--8--10--11--10-8------------|-----------6--------------|
|--------------------8--------|--6--8--9----8---------8--|
|-----------------------------|--------------------------|

 surfing on the internet, And was zapped to cyberspace  He 
|------------------------------|---------------------------|
|--8--10--11--10-8--8----------|--5--5--5--5-7----------8--|
|---------------------8--8--8--|---------------------------|
|------------------------------|---------------------------|

 turned into the Freakazoid, He's strong and super-quick  He
|--9--8--6------------------|--9--8--6------------------|
|-----------6-8--8-8-----8--|-----------6h-8---------8--|
|---------------------------|---------------------------|
|---------------------------|---------------------------|

 drives the villains crazy,   'Cause he's a lunatic          
|--6--6--8-8--9--10------10--|--12--12--12-12--14----------|
|----------------------------|-----------------------------|
|----------------------------|-----------------------------|
|----------------------------|-----------------------------|


[Return to main theme]

 His home base is the Freakalair, Freakazoid! Fricassee!
|-----------------------------|--------------------------|
|-----------------------------|--------------------------|
|--------5-----8--7-5---------|--------------------------|
|--7--7-----7-----------------|--7--5-7------7--5-7------|

 Floyd the Barber cuts his hair, Freakazoid! Chimpanzee!
|-----------------------------|--------------------------|
|-----------------------------|--------------------------|
|--------5-----8--7-5---------|--------------------------|
|--7--7-----7-----------------|--7--5-7------7--5-7------|

 Rides around in the Freakmobile, Freakazoid! Freakazoo!
|-----------------------------|--------------------------|
|--------5-----8--7-5---------|--------------------------|
|--7--7-----7-----------------|--7--5-7------7--5-7------|
|-----------------------------|--------------------------|

 Hopes to make a movie deal,   Freaka me! Freaka you!  He's
|-----------------------------|---------------------------|
|-----------------------------|---------------------------|
|--------5-----8--7-5---------|---------------------------|
|--7--7-----7-----------------|--7--5-7------7--5-7----7--|

 here to save the nation, So stay tuned to this station
|--------------------------|-------------------------|
|--4--4--2--0-2---4--------|--3--3--2--0-------------|
|-----------------------2--|--------------2--0-------|
|--------------------------|-------------------------|

 If not, we'll be unemployed,  Freakazoid! Freakazoid!
|-----------------------------|--------------------------|
|--------0-----3--2-0---------|--------------------------|
|--2--2-----2-----------------|--2--0-2------2--0-2------|
|-----------------------------|--------------------------|

             Freakazoid!!
|-----------------------|
|-----------------------|
|------------14--12-14--|
|--7~~~~~~/-------------|
   ^ (Hold this note then quickly slide up)


Tab Key
 ~  Hold note
 /  Slide up
 h  Hammer on

                                                                     31.12.07
===============================================================================


Share "Freakazoid Theme" by Misc Television


TOP 10 TABS

FRESH NEW TABS

ALL ARTISTS
artist wiki

mp3bear.com
song lyrics / contact us / privacy policy / tabspace toolbar
Copyright 2004 - 2014 TabSpace.com - All Rights Reserved.
song: freakazoid theme bass tabs by misc television

0.032