:: Guitar & Bass Tabs Make Home Page
A B C D E F G H I J K L M N O P Q R S T U V W X Y Z #

  for    

On TABSPACE
Info About This Tab
Artist: Tokio Hotel
Tab Type: Bass
Rate This Tab!
INTRO:

G|-------------------|
D|-------------------|
A|-------44444-------|
E|-22222------44444--| x2

VERSE:

[Meine Wohnung..]

G|---------------------------------------------------|
D|---------------------------------------------------|
A|-------------6-6-6-4-4-4-------------6-6-6-4-4-4---|
E|-4-4-4-2-2-2-------------4-4-4-2-2-2---------------|

[Zurück will ich nicht..]
G|---------------------------------------------------|
D|---------------------------------------------------|
A|-------------6-6-6-4-4-4-------------6-6-6-4-4-4---|
E|-4-4-4-2-2-2-------------4-4-4-2-2-2---------------|

CHORUS:

G|-------------------|
D|-------------------|
A|-------44444-------|
E|-22222------44444--| x4

[1,000 augen..]

G|---------------------------------------------------|
D|---------------------------------------------------|
A|-------------6-6-6-4-4-4-------------6-6-6-4-4-4---|
E|-4-4-4-2-2-2-------------4-4-4-2-2-2---------------|

CHORUS:

G|-------------------|
D|-------------------|
A|-------44444-------|
E|-22222------44444--| x4

[Ich will nur frei sein..]

G|------------|
D|------------|
A|------22222-|
E|-44444------| x4

INTERLUDE:

[Lass mich fallen!]

G|---------------------------------------|
D|---------------------------------------|
A|---------------------------------------| x4
E|-7-6-4-6-4-2-4-2-1-0~------------------|

CHORUS:

G|-------------------|
D|-------------------|
A|-------44444-------|
E|-22222------44444--| x4

[Lass mich fallen!]

G|---------------------------------------|
D|---------------------------------------|
A|---------------------------------------| x4
E|-7-6-4-6-4-2-4-2-1-0~------------------|
| /  slide up
| \  slide down
| h  hammer-on
| p  pull-off
| ~  vibrato
| +  harmonic
| x  Mute note
===============================================================================



Share "Frei Im Freien Fall" by Tokio Hotel


TOP 10 TABS

FRESH NEW TABS

ALL ARTISTS
artist wiki

mp3bear.com
song lyrics / contact us / privacy policy / tabspace toolbar
Copyright © 2004 - 2014 TabSpace.com - All Rights Reserved.
song: frei im freien fall bass tabs by tokio hotel

0.006