:: Guitar & Bass Tabs Make Home Page
A B C D E F G H I J K L M N O P Q R S T U V W X Y Z #

  for    

On TABSPACE
Info About This Tab
Artist: Fear
Tab Type: Guitar
Rate This Tab!
My Favourite Christmas song :P

Fear
Fuck Christmas

intro
----------19---------|
-17-19-20----19-20---|
---------------------| 2X
---------------------|
---------------------|
---------------------|

Verse
-------------------------------------------------------------|
----------8-----------5-----------2h4p2----------2h4p2-------|
--------9---9-------5---5-------4------4-------4-------4-----|
------9-------9---5-------5---4----------4---4-----------4---| 2X
----7-----------3-----------2--------------2---------------2-|
-------------------------------------------------------------|

Pre chorus 2ND TIME WITHOUT <_______________________>this
---------------------------------------------------------|
-------1-----------1-------------------------------------|
-----2---2-------2---2-----------------------------------| 2X
---2-------2---2-------2---------------------------------|
-0-----------0------------2-2-2-2-2-2-2-2-2-2-2-2--------|
--------------------------0-0-0-0-0-0-0-0-0-0-0-0--------|
                       pm--------------------------------|

CHORUS !!!!!!!!!!!! the F#CK CHRISTMAS part
--------|
--------|
--9-7-9-|
--9-7-9-|
--7-5-7-|
--------|

Little fills during chorus (repeat after F#ck Christmas )

fill 1
----------------|
----------------|
-12/\/\/\/\/\--
----------------|
----------------|
----------------|
 ^^whammy this note

fill 2
-12---
-15b--
------|
------|
------|
------|

end with
--------|
--------|
--9-7-9-|
--9-7-9-|
--7-5-7-|
--------|

HOHOHOHOHOHO
Merry christmas UG !!!!!!!!!!!!


Share "Fuck Christmas" by Fear


TOP 10 TABS

FRESH NEW TABS

ALL ARTISTS
artist wiki

mp3bear.com
song lyrics / contact us / privacy policy / tabspace toolbar
Copyright 2004 - 2014 TabSpace.com - All Rights Reserved.
song: fuck christmas guitar tabs by fear

0.029